Törr

piesne (74)

  texty (49) / preklady (0)
  akordy (14) / taby (22)
  noty (0) / slideshow (0)

články (17)
fotogaléria
diskusia
videá
diskografia
v obchode
odkazy
koncerty
sťahuj



pridaj vlastný článok

Arakain:
Hudební tipy 23. týden - Skupina Lucie 2014 autor: archiv zvětšit obrázek Setkání v hudbě Portré... - scena.cz


Flamengo:
Obľúbené vinylové platne III. - Pozrite si tretí prehľad klasických LP platní, ktoré mám doma a z rôznych dôv... - frenky.sk


Adagio Funebre:
Bývalý basák Törru přichází s novou kapelou ADAGIO FUNEBRE - Po dlouhých čtyřech letech přichází ústecká doom metalová formace ADAGIO FUNEBRE... - In Motion Agency


Törr:
Rozhovor s Otou Herešem (Törr) - Představovat kapelu TÖRR snad ani není třeba. Kdo z fanoušků, jenž se alespoň... - rockmag.cz


Törr:
Vlasta Henych vyměnil Törr za projekt Henych 666 a oslaví padesátiny - ireport.cz


Alkehol:
Noc plná hvězd s Mr. Big a Pro-Pain, Basinfirefest s Ill Niño, Benátská
noc s Clawfinger
- muzikus.cz


Törr:
TORR Inferno Nocturno/Live - TORR Inferno Nocturno/Live CD & CD/DVD 2010 Inferno Nocturno je nový radový albu...


Törr:
Törr připravili pekelné noční představení - musicserver.cz


Törr:
Törr otevírají pekelné brány - ireport.cz


Alkehol:
HEY! ANIMALfest 2010: už 35 kapel - HEY! ANIMALfest 2010: už 35 kapel Přímý festival bez jakéhokoliv nadtextu či podte...


 

Törr

Fanúšikov: 5



A B C Č D E F G H CH I J K L Ľ M N O P Q R S Š T U V W X Y Z Ž



ako:
Törr - Padlý chtíč
Törr - Padlý chtíč

tlač

edituj
Rok vzniku: 1990
Pesničku videlo 2784 návštevníkov.

Kvalita tabov : bez hodnotenia
Hodnotilo ľudí: 0 ohodnoť aj ty
Prispievateľ:

MARYLIN
  *** Autor textu: TORR *** Autor hudby: TORR
PŘEDEHRA
E--------------------------------
H--------------------------------
G--------------------------------
D--------------------------------
A--------------------------------
E-7-7--10-9-------7-7--10-7------


MEZIHRA Č.1
E----------------------------------
H----------------------------------
G----------------------------------
D----------------------------------
A----------------------------------
E--0-0--3-2--5-4---4-4-4-4---4-5---



SLOKA:NAD VELKÝM OLTÁŘEM...
E--------------------------------------
H--------------------------------------
G--------------------------------------
D--------------------------------------
A--------------------------------------
E-10--6-5---8--4-3---5--2-1---2---3-4--


REFRÉM
E-----------------------------------------------
H-----------------------------------------------
G-----------------------------------------------
D-----------------------------------------------
A---------------------------7-7--4--------------
E-4-4-4-4-4-4-4-4-4-4-4-4----------4-4-4-4-4-4--


MEZIHRA Č.2
E---------------------
H---------------------
G---------------------
D---------------------
A---------------------
E--0-0-0-2-0-1-0-1-2--
TA MEZIHRA Č.2 ASI NENÍ TAK PŘESNĚ

SOLO
E-12---------------------
H----12------------------
G-------12---------------
D----------12--12-12-12--
A------------------------
E------------------------
STRUNA D TERMOLO




 
»
Tvoje obľúbené položky
Tvoje obľúbené položky
»
Nové albumy interpreta
Nové albumy interpreta
CD Torr Black 'n' roll
CD Black 'n' roll
2xCD Torr Gallery
2xCD Gallery
CD Torr Tempus fugit
CD Tempus fugit

»
Najnovšie videá
Najnovšie videá

TRR - ARMAGEDDON 1990

Dialog - Cht

Cardinal Assault - Cht

Ecce Mors - Cht

INDIGO - LSKA NEBO CHT

Hip Hop Cht II
»
Najnavštevovanejšie piesne
Najnavštevovanejšie piesne



home | interpreti | register piesní | cd & dvd shop | pripomienky/nápady | kontakt | ochrana údajov | inzercia

TOPlist