Iron Maiden

piesne (486)

  texty (180) / preklady (139)
  akordy (35) / taby (159)
  noty (0) / slideshow (0)

články (101)
fotogaléria
diskusia
videá
diskografia
v obchode
odkazy
koncerty
sťahuj



pridaj vlastný článok

Iron Maiden:
Iron Maiden: TOP 5 překvapení v setlistu, které slibuje pražský koncert - Vydáno včera | autor: redakce Nedá se předpokládat, že by Iron Maiden po vzoru... - ireport.cz


Steve Harris:
Steve Harris z Iron Maiden: Každý koncert i zápas je posvátný - Britská heavymetalová legenda Iron Maiden se představí 20. června na letišti v pra... - novinky.cz


Iron Maiden:
Iron Maiden - časový harmonogram - Obrázek: Iron Maiden - časový harmonogram 18. 6. 2018 A je to tady! Ve středu se na... - radiobeat.cz


Iron Maiden:
Podívejte se na „The Book Of Souls: Live Chapter“ od IRON MAIDEN - PR News, Video, iron maiden 22.11.17 11:05 Podívejte se na „The Book Of Souls: Live C... - spark-rockmagazine.cz


Iron Maiden:
IRON MAIDEN vydali koncertný album The Book Of Souls! - Pridal Marek Muzika 20. novembra 2017 0 Zdieľať na Facebooku Tweet na Twitteri ... - music-zone.eu


Avenged Sevenfold:
Týždeň v hard & heavy: Iron Maiden zahrajú na Nova Rocku, streamujú koncert - včera o 00:00 | redakcia Festival Nova Rock oznámil viacero veľkých headlinerov, a... - zoznam.sk


Iron Maiden:
V létě se opět vrátí legendy Iron Maiden - V létě se opět vrátí legendy Iron Maiden Autor: Iva Boková 13.11.2017 Tisk Po ... - abradio.cz


Iron Maiden:
Vydali koncertny album The Book Of Souls: Live Cha - Ako už názov platne napovedá, jedná sa o záznam z turné k poslednému štúdiovému... - R.Tomášová


Iron Maiden:
Iron Maiden zahrají v červnu v Praze na letišti v - Iron Maiden zahrají v červnu v Praze na letišti v Letňanech Vydáno: 13.11.2017 16... - musicserver.cz


Iron Maiden:
IRON MAIDEN ohlašují nový živák a film, který budou streamovat zdarma - KamilDočkal News, iron maiden 24.09.17 10:48 IRON MAIDEN ohlašují nový živák a fil... - spark-rockmagazine.cz


 

Iron Maiden

Fanúšikov: 89



A B C Č D E F G H CH I J K L Ľ M N O P Q R S Š T U V W X Y Z Ž



ako:
Iron Maiden - Paschendale-solo
Iron Maiden - Paschendale-solo

tlač

edituj
Pesničku videlo 2005 návštevníkov.

Kvalita tabov : bez hodnotenia
Hodnotilo ľudí: 0 ohodnoť aj ty
Prispievateľ:

jardo

(Murray)
w/dist. neck pick up
e-------------------12----14b(15)r14-12-14-12h14p12----12--------12------|
B---15b(17)-15b(17)----12---------------------------15----15b(17)—-15p12-|
G------------------------------------------------------------------------|
D------------------------------------------------------------------------|
A------------------------------------------------------------------------|
E------------------------------------------------------------------------|

e----------------------15b(17)-15-14-12-14-12h14p12----12--------12------|
B----------12-------12------------------------------15----15b(17)—-12-15-|
G---14b(16)---15p14------------------------------------------------------|
D------------------------------------------------------------------------|
A------------------------------------------------------------------------|
E------------------------------------------------------------------------|

e------------------------------------14-15----14h15p14----------15-14h15-|
B----------12------------------15-17-------17----------17-15s12----------|
G---14b(16)---15-14p12h14-(14)\------------------------------------------|
D------------------------------------------------------------------------|
A------------------------------------------------------------------------|
E------------------------------------------------------------------------|
w/bar
e---p14----14----------15-14h15-14-------12-14p12h14p12----------15b(17)-|
B-------17----17-15s12-------------17-15----------------15-(15)\---------|
G------------------------------------------------------------------------|
D------------------------------------------------------------------------|
A------------------------------------------------------------------------|
E------------------------------------------------------------------------|

e---15-14-12-14-12h14p12----12---------12-------------------------|
B------------------------15----15b(17)----15p14p12----12-14p13p12-|
G--------------------------------------------------15-------------|
D-----------------------------------------------------------------|
A-----------------------------------------------------------------|
E-----------------------------------------------------------------|

e---------------------------------------------------------|
B---------------------------------------------------------|
G---15p14p12-14b(16)r14p12-14b(16)r14p12-14-14~---(14)~~\-|
D---------------------------------------------------------|
A---------------------------------------------------------|
E---------------------------------------------------------| End of solo 1




(Smith)

e---8b(9)r8-9-9—-9-11-12-11p9—-9-----------9------------------------9-----|
B----------------------------12-12p9--------12p9------------9-12p9---12p9-|
G-----------------------------------11b(13)-----11b(12)-11p9------12------|
D-------------------------------------------------------------------------|
A-------------------------------------------------------------------------|
E-------------------------------------------------------------------------|
P.H P.H P.H P.H P.H
e------------9--------------------------------------------0-2-0h2-0------|
B----------9---12p9------------------------------------------------4-0-4-|
G---11b(13)--------11p9------8~----8~----8~----8~--9-11-8~------------1--|
D------------------------------9-x---9-x---9-x---------------------------|
A-----------------------11~~---------------------------------------------|
E------------------------------------------------------------------------|

e---------------------------------------------------------9---11---12-12-|
B-------------------------------------------------------9---9----9-------|
G-----------11-13-14--------11-13-14--------11-13-(13)\------------------|
D---11-13-14--------11-13-14--------11-13-14-----------------------------|
A------------------------------------------------------------------------|
E------------------------------------------------------------------------|

e---11b(12)r11----------------14-16-17h16p14---14----------------14------|
B-------------10-10---14h16h17--------------17----17p16-14-16-17---17p16-|
G------------------------------------------------------------------------|
D------------------------------------------------------------------------|
A------------------------------------------------------------------------|
E------------------------------------------------------------------------|

e----------------------------------------------------14-16-17---------|
B---p14-17-16p14---16p14-----14h16-----------14-16-17--------14h16h17-|
G---------------16------16p14--------13h14h16-------------------------|
D----------------------------------16---------------------------------|
A---------------------------------------------------------------------|
E---------------------------------------------------------------------|

e---14-16-17-17---17b(19)~~~~-|
B-----------------------------|
G-----------------------------|
D-----------------------------|
A-----------------------------|
E-----------------------------| End of solo 2

Bridge then after bridge: solo 3:

(Gers)
w/bar P.H
e-----------------------------------------------------------------------|
B--------------------------------------------------13b(15)r13p10---10---|
G---12b(14)---10-----12b(14)-12b(14)r12p10----------------------13---13-|
D-----------------------------------------12-10-------------------------|
A-----------------------------------------------------------------------|
E-----------------------------------------------10----------------------|


e--------------------------------13b(15)-13-12-10-10---------------------|
B---10h12p10---10------------x-x--------------------13-12-10-12-13-13-13-|
G-----------13----13----10-----------------------------------------------|
D--------------------12----0---------------------------------------------|
A------------------------------------------------------------------------|
E------------------------------------------------------------------------|

e--------------------------------------------------13b(15)-13-12-10—-10---|
B-------------------------------------13b(15)r13-------------------10--10-|
G--------7h8p7----------10h12p10---10-----------12------------------------|
D-------------10-9-10-12--------12----------------------------------------|
A---15\-------------------------------------------------------------------|
E-------------------------------------------------------------------------|

e--------------------------------------------------------------------|
B---13b(15)r13-10----10----10-10----10----10-13p10----10-15p10----10-|
G-----------------13----13-------13----13----------13----------13----|
D--------------------------------------------------------------------|
A--------------------------------------------------------------------|
E--------------------------------------------------------------------|

e------------------------------12-13-15p13--------------------13p12-13p12-|
B---13p10----10-15p10----10-13-------------15p13--------------------------|
G---------12----------12-------------------------------12b(14)------------|
D------------------------------------------------15-----------------------|
A---------------------------------------------------12--------------------|
E-------------------------------------------------------------------------|

e-----12--12-15p13p12—-12-------------------------------------------------|
B---13--13-----------13—-13-13p10—-10-------------------------------------|
G--------------------------------13—-13-12p10—-10-------------------------|
D--------------------------------------------12—-12-10--------------------|
A-----------------------------------------------------12-11-10-8----8-----|
E----------------------------------------------------------------10---10\-|

 
»
Tvoje obľúbené položky
Tvoje obľúbené položky
»
Nové albumy interpreta
Nové albumy interpreta
BK Iron Maiden At reading (limited flight case edition)
BK At reading
(limited
flight
case
edition)
3xVINYL Iron Maiden Book of souls: live chapter [vinyl]
3xVINYL Book of
souls:
live
chapter
[vinyl]
2xCD Iron Maiden Book of souls: live chapter [2cd edice]
2xCD Book of
souls:
live
chapter
[2cd
edice]
2xCD Iron Maiden Book of souls - live chapter
2xCD Book of
souls -
live
chapter
KAL Iron Maiden =calendar= Calendar 2018 a3 [29,7 x 42 cm]
KAL Calendar
2018 a3
[29,7 x 42
cm]
KAL Iron Maiden 2018 calendar
KAL 2018
calendar
»
Najnovšie videá
Najnovšie videá

Iron Maiden - Paschendale

Iron Maiden - 08 Paschendale (Live Death

Iron Maiden - Passchendaele

Iron Maiden - Paschendale Lyrics

Iron Maiden - Paschendale (Polskie Napis

Iron Maiden - Wildest Dreams (Official V

»
Najnavštevovanejšie piesne
Najnavštevovanejšie piesne
Fear Of The Dark - akordy a text

Fear Of The Dark - taby

Runto The Hills - akordy a text

Fear Of The Dark - preklad

Doctor, Doctor - akordy a text

The Wicker Man - akordy a text

Brave New World - akordy a text

Aces High - preklad

Fear Of The Dark (sk) - preklad

Aces High - akordy a text

Fear Of The Dark - text

Journeyman - akordy a text

Wasting Love - preklad

Dance Of Death - taby

Hallowed Be Thy Name - preklad

The Number Of The Beast - preklad

Run To The Hills - preklad

Brave New World - preklad

Wasted Years - akordy a text

2 Minutes To Midnight - akordy

viac




home | interpreti | register piesní | cd & dvd shop | pripomienky/nápady | kontakt | ochrana údajov | inzercia

TOPlist