Peter Bažík

piesne (22)

  texty (18) / preklady (1)
  akordy (2) / taby (2)
  noty (0) / slideshow (0)

články (49)
fotogaléria
diskusia
videá
diskografia
v obchode
odkazy
koncerty
sťahuj



pridaj vlastný článok

Peter Bažík:
Spevák Peter Bažík z X Factoru: Hrozivá autonehoda s celou rodinou! - Spevák Peter Bažík z X Factoru: Hrozivá autonehoda s celou rodinou!" href="https://ww... - cas.sk


Peter Bažík:
Peter Bažík sa po druhýkrát stal otcom: Dcérka je celá po ňom! - Peter Bažík sa po druhýkrát stal otcom: Dcérka je celá po ňom!" style="display: bl... - cas.sk


Peter Bažík:
Peter Bažík pokrstil svoj debutový album Kto som - Slovenský multiinštrumentalista a spevák Peter Bažík pokrstil v piatok večer v brat...


Peter Bažík:
Dcéra víťaza X Factora Petra Bažíka: Hoci má len dva zúbky, už sa
potatila!
- Dcéra víťaza X Factora Petra Bažíka: Hoci má len dva zúbky, už sa potatila!" styl... - cas.sk


Peter Bažík:
Na Straníku sa jódlovalo - V Žiline vznikajú aj podobné netradičné piesne. Konkrétne pieseň Lonely yodel vzni... - Peter Kulich


Peter Bažík:
Víťaz X Factoru mieri vysoko: Bažík má hviezdneho manažéra a chystá duet
s mentorkou!
- Víťaz X Factoru mieri vysoko: Bažík má hviezdneho manažéra a chystá duet s mentor... - cas.sk


Peter Bažík:
Víťaz X Factora priniesol radosť do materskej školy: Malí fanúšikovia si
s Bažíkom zatancovali!
- Víťaz X Factora priniesol radosť do materskej školy: Malí fanúšikovia si s Bažík... - cas.sk


Peter Bažík:
Víťaz X Factoru Peter Bažík prezradil, čo spraví s výhrou - 27.05.2014 07:13 - topstar.sk ... - noviny.sk


Peter Bažík:
Bažíkova cesta k rozprávkovej výhre - #X Factor #Peter Bažík Pravda.sk | 26.05.2014 14:49 Večer plný napätia a n... - pravda.sk


Peter Bažík:
Víťazom X Factor sa stal Peter Bažík. Zaslúžil si to, vyhlásila Sklovska - #X Factor #víťaz #výhra #Peter Bažík Pravda.sk | 25.05.2014 23:54 Hovorí ... - pravda.sk


 

Peter Bažík

Fanúšikov: 5



A B C Č D E F G H CH I J K L Ľ M N O P Q R S Š T U V W X Y Z Ž



ako:
Peter Bažík - Paradise versus Babylon
Peter Bažík - Paradise versus Babylon



tlač

edituj
Rok vzniku: 2009
V originále: Peter Bažik
Poznámka: Pesnička na Eurovíziu

Pesničku videlo 4113 návštevníkov.

Kvalita tabov : bez hodnotenia
Hodnotilo ľudí: 0 ohodnoť aj ty
Prispievateľ:

Kajkko1
  *** Autor textu: Peter Bažik *** Autor hudby: Peter Bažik
E--2-----2------2------3-----3-----3-----------------------------------------
H--2-----2------2------3-----3-----3-------------------------------------------
G--4-----4------4------3-----3-----3---------------------------------
D--4-----4------4------5-----5-----5----2---2---2---2----------------------------
A--2-----2------2------5-----5-----5----2---2---2---2----------------------------
E--2-----2------2------3-----3-----3------------------------------------------
Rytmus zistite podla počutia

Vraj niet cesty naspät v nas vrie boj o vlastyn raj Paradise.



Ref
E--2------3-------5--------5----------------------------------------------------
H--2------3-------5--------5------------------------------------------------------
G--4------3-------7--------5------------------------------------------------
D--4------5-------7--------7---------------------------------------------------
A--2------5-------5--------7----------------------------------------------------
E--2------3-------5--------5-------------------------------------------------------

Chcem len spät svoj raj vlastný raj z vlastných slov......

Modulácia
2.sloha

E--4------5------3------------------------------------------
H--4------5------3---------------------------------------
G--6------5------3----------------------------------------
D--6------7------5---------------------------------------
A--4------7------5-------------------------------------------
E--4------5------3--------------------------------------------

Ref.2
E--3-----5------7------7---------------------------------------------------
H--3-----5------7------7--------------------------------------------------
G--6-----5------9------7------------------------------------------------
D--6-----7------9------9---------------------------------------------
A--3-----7------7------9--------------------------------------------------
E--3-----5------7------7----------------------------------------------------

Stači si to vypočut a rytmus máte.A zistite presne ktory rif na kolko dôb hrat

 
»
Tvoje obľúbené položky
Tvoje obľúbené položky
»
Nové albumy interpreta
Nové albumy interpreta
CD Bazikovci Vianocny cas
CD Vianocny cas

»
Najnovšie videá
Najnovšie videá

Peter Bak - Paradise versus Babylon

paradise vs babylon

Peter Bak - Chamelen (1.jn 2014)

Peter Bazik Spiders capriccio

V Malatinej boli ahkmi Oravia a Peter

Peter Bak Andrea Slovsk Nebudem stt
»
Najnavštevovanejšie piesne
Najnavštevovanejšie piesne



home | interpreti | register piesní | cd & dvd shop | pripomienky/nápady | kontakt | ochrana údajov | inzercia

TOPlist