Dying Fetus

piesne (102)

  texty (64) / preklady (0)
  akordy (0) / taby (38)
  noty (0) / slideshow (0)

články (3)
fotogaléria
diskusia
videá
diskografia
v obchode
odkazy
koncerty
sťahuj



pridaj vlastný článok

Alcest:
Týždeň v hard & heavy: Cradle of Filth mieria opäť na Slovensko! - Týždeň v hard & heavy: Cradle of Filth mieria opäť na Slovensko! pred 8 hodinami ... - zoznam.sk


Anal Cunt:
Týždeň v hard & heavy: Marilyn Manson vie, kde bývate a nájde si vás - pred 7 hodinami | redakcia Sexy mníšky, výstrely zbraní a vykričané vulgárnosti... - zoznam.sk


Dying Fetus:
Extrémní metal v Praze: Heaven Shall Burn, Hypocrisy, Dying Fetus - Extrémní metal v Praze: Heaven Shall Burn, Hypocrisy, Dying Fetus];" target="_blank">He... - IREPORT


Cannibal Corpse:
Limitovaná edice zlevněných vstupenek na Brutal Assault stále v prodeji - musiczone.cz


Cannibal Corpse:
Apocalypse deathfest VI. - port.sk


Dying Fetus:
DYING FETUS - koncert - whiplashmag.net


 

Dying Fetus

Fanúšikov: 2



A B C Č D E F G H CH I J K L Ľ M N O P Q R S Š T U V W X Y Z Ž



ako:
Dying Fetus - Parasites Of Catastrophe
Dying Fetus - Parasites Of Catastrophe

tlač

edituj
Rok vzniku: 2007
Pesničku videlo 1128 návštevníkov.

Kvalita tabov : bez hodnotenia
Hodnotilo ľudí: 0 ohodnoť aj ty
Prispievateľ:

Diwa Swina
Autor hudby: Dying Fetus
You'll have to figure out the riff repeats on your own.

PM PM PM PM
S S S S S S S S S S S S S S S S
C#||--------------------------------------------|
G#||--------------------------------------------|
E ||--------------------------------------------|
B ||-------9-12---------------------------------|
F#||--8-11------8-11-----------------8-11-------|
C#||-----------------7-10-0--0--7-10------0--0--|


PM PM PM PM
S S S S S S S S S S E E E S S S S S S S S S S S S S S S
--------------------------------|-------------------------------------------|
--------------------------------|-------------------------------------------|
--------------------------------|-------------------------------------------|
--------------3-6---------------|-------9-12--------------------------------|
------5-8-2-5-----6S-5-8--5--7--|--8-11------8-11-----------------8-11------|
--4-7-------------4S-3-6--3--5--|-----------------7-10-0--0--7-10------0--0-|


T T T T T T T T T T T T T T T T T T T T T T T T T T T T T T T T
------------------------------------------------------------------|
------------------------------------------------------------------|
------------------------------------------------------------------|
------------------6-6-6-6-----------------9-9-9-9-----------------|
----------5-5-5-5---------5-5-5-5-8-8-8-8---------8-8-8-8---------|
--4-4-4-4-------------------------------------------------7-7-7-7-|


PM PM PM PM
S S S S S S S S S S S S S S S S S S S S S S S S S S E E E
--------------------------------------------|-------------------------------|
--------------------------------------------|-------------------------------|
--------------------------------------------|-------------------------------|
-------9-12---------------------------------|--------------3-6--------------|
--8-11------8-11-----------------8-11-------|------5-8-2-5-----6S-5-8--5--7-|
-----------------7-10-0--0--7-10------0--0--|--4-7-------------4S-3-6--3--5-|


PM PM PM PM
S S S S S S S S S S S S S S S S
--------------------------------------------|
--------------------------------------------|
--------------------------------------------|
-------9-12---------------------------------|
--8-11------8-11-----------------8-11-------|
-----------------7-10-0--0--7-10------0--0--|


T T T T T T T T T T T T T T T T T T T T T T T T T T T T T T T T
------------------------------------------------------------------|
------------------------------------------------------------------|
------------------------------------------------------------------|
------------------6-6-6-6-----------------9-9-9-9-----------------|
----------5-5-5-5---------5-5-5-5-8-8-8-8---------8-8-8-8---------|
--4-4-4-4-------------------------------------------------7-7-7-7-|


PM PM PM PM
S S S S S S S S S S S S S S S S S S S S S S S S S S E E E
--------------------------------------------|-------------------------------|
--------------------------------------------|-------------------------------|
--------------------------------------------|-------------------------------|
-------9-12---------------------------------|--------------3-6--------------|
--8-11------8-11-----------------8-11-------|------5-8-2-5-----6S-5-8--5--7-|
-----------------7-10-0--0--7-10------0--0--|--4-7-------------4S-3-6--3--5-|


PM PM PM PM
S S S S S S S S S S S S S S S S
--------------------------------------------|
--------------------------------------------|
--------------------------------------------|
-------9-12---------------------------------|
--8-11------8-11-----------------8-11-------|
-----------------7-10-0--0--7-10------0--0--|


T T T T T T T T T T T T T T T T T T T T T T T T T T T T T T T T
------------------------------------------------------------------|
------------------------------------------------------------------|
------------------------------------------------------------------|
------------------6-6-6-6-----------------9-9-9-9-----------------|
----------5-5-5-5---------5-5-5-5-8-8-8-8---------8-8-8-8---------|
--4-4-4-4-------------------------------------------------7-7-7-7-|


PM PM PM PM
S S S S S S S S S S S S S S S S S S S S S S S S S S E E E
--------------------------------------------|-------------------------------|
--------------------------------------------|-------------------------------|
--------------------------------------------|-------------------------------|
-------9-12---------------------------------|--------------3-6--------------|
--8-11------8-11-----------------8-11-------|------5-8-2-5-----6S-5-8--5--7-|
-----------------7-10-0--0--7-10------0--0--|--4-7-------------4S-3-6--3--5-|


PM PM PM PM
S S S S S S S S S S S S S S S S
--------------------------------------------|
--------------------------------------------|
--------------------------------------------|
-------9-12---------------------------------|
--8-11------8-11-----------------8-11-------|
-----------------7-10-0--0--7-10------0--0--|


T T T T T T T T T T T T T T T T T T T T T T T T T T T T T T T T
------------------------------------------------------------------|
------------------------------------------------------------------|
------------------------------------------------------------------|
------------------6-6-6-6-----------------9-9-9-9-----------------|
----------5-5-5-5---------5-5-5-5-8-8-8-8---------8-8-8-8---------|
--4-4-4-4-------------------------------------------------7-7-7-7-|


PM PM PM PM PM
E E T T T T T T T T T T T T E E E S S E E E S S E E E
-----------------------------------------||--------------------------------|
-----------------------------------------||--------------------------------|
-----------------------------------------||*-------------------------------|
--6--9--------------------------2--3--6--||*-------------------------------|
--6--9------------------2-2-2-2-2--3--6--||------------3s--6------3--5--6--|
--4--7--1-1-1-1-4-4-4-4---------0--1--4--||---0--0--0--1s--4--0-0-1--3--4--|


PM PM PM PM PM PM PM PM PM PM
E E E E E E E E S S E E E S S E E E
----------------------------|-------------------------------|
----------------------------|-------------------------------|
----------------------------|-------------------------------|
----------------------------|-------------------------------|
-----3s--5s--6--2--3--2--3--|-----------3s--6------3--5--6--|
--0--1s--3s--4--0--1--0--1--|--0--0--0--1s--4--0-0-1--3--4--|


PM PM PM PM PM PM PM PM PM PM
E E E E E E E E S S E E E S S E E E
----------------------------|-------------------------------|
----------------------------|-------------------------------|
----------------------------|-------------------------------|
----------------------------|-------------------------------|
-----3s--5s--6--2--3--2--3--|-----------3s--6------3--5--6--|
--0--1s--3s--4--0--1--0--1--|--0--0--0--1s--4--0-0-1--3--4--|


PM PM PM PM PM PM PM PM PM PM
E E E E E E E E S S E E E S S E E E
----------------------------|-------------------------------|
----------------------------|-------------------------------|
----------------------------|-------------------------------|
----------------------------|-------------------------------|
-----3s--5s--6--2--3--2--3--|-----------3s--6------3--5--6--|
--0--1s--3s--4--0--1--0--1--|--0--0--0--1s--4--0-0-1--3--4--|


E E E E E E E E E E E E E E E E
------------------------------||-----------------------------|
------------------------------||-----------------------------|
-----------------------------*||--4s--5--5--5s--7--7--7s--8--|
-----------------------------*||-----------------------------|
--2s--3--3--3s--5--5--5s--6---||--2s--3--3--3s--5--5--5s--6--|
--0s--1--1--1s--3--3--3s--4---||-----------------------------|


PM PM PM PM PM PM PM PM PM PM
S S S S S S S S S S E E E
|------------------------------------------|
|------------------------------------------|
|*-----------------------------------------|
|*-----------------------------------------|
|---------------------------------------3--|
|---4--4--4--4--1--1--3--3--3--3--0--0--1--|


PM PM PM PM PM PM PM PM PM PM PM PM PM
S S S S S S S S S S E E E
-----------------------------------------|
-----------------------------------------|
-----------------------------------------|
-----------------------------------------|
--------------------------------2--2--3--|
--4--4--4--4--1--1--3--3--3--3--0--0--1--|


PM PM PM PM PM PM PM PM PM PM PM PM PM
S S S S S S S S S S E E E E E E E E E E E
-----------------------------------------|--------------------------|
-----------------------------------------|--------------------------|
-----------------------------------------|--------------------------|
-----------------------------------------|--------------------------|
--------------------------------------3--|--6--3-----5-----2-----3--|
--4--4--4--4--1--1--3--3--3--3--0--0--1--|--4--1--0--3--0--0--0--1--|


PM PM PM PM PM PM PM PM PM PM
S S S S S S S S S S E E E
-----------------------------------------|
-----------------------------------------|
-----------------------------------------|
-----------------------------------------|
--------------------------------------3--|
--4--4--4--4--1--1--3--3--3--3--0--0--1--|


PM PM PM PM PM PM PM PM PM PM PM PM PM
S S S S S S S S S S E E E
-----------------------------------------|
-----------------------------------------|
-----------------------------------------|
-----------------------------------------|
--------------------------------2--2--3--|
--4--4--4--4--1--1--3--3--3--3--0--0--1--|


PM PM PM PM PM PM PM PM PM PM PM PM PM PM PM PM PM PM PM PM
S S S S S S S S S S E E E S S E E E E S S E E
-----------------------------------------|---------------------------------|
-----------------------------------------|---------------------------------|
-----------------------------------------|--------------------------------*|
-----------------------------------------|--------------------------------*|
--------------------------------------3--|---------------------------------|
--4--4--4--4--1--1--3--3--3--3--0--0--1--|--0--0--0--0--0--0--0--0--0--0---|


PM PM PM PM PM PM
E E E E E E E E E E E E E E E E
-----------------------------|-----||---------------------------|
-----------------------------|-----||---------------------------|
-----------------------------|-----||*--------------------------|
-----------------------------|-----||*--------------9--9--------|
--2s--3--3--3s--5--5--5s--6--|-----||---8--8--------------8--8--|
--0s--1--1--1s--3--3--3s--4--|-----||---------7--7--------------|


PM PM PM PM PM PM PM PM PM PM
E E E E E E E E E E E E E E E E Q Q Q Q
--------------------------|--------------------------|----------------------|
--------------------------|--------------------------|----------------------|
--------------------7--7--|--------------------------|----------------------|
--------------6--6--------|--------------9--9--------|----------------------|
--------5--5--------------|--8--8--------------8--8--|--8----7----4----5----|
--4--4--------------------|--------7--7--------------|--6----5----2----3----|


PM PM PM PM PM PM PM PM PM PM
E E E E E E E E E E E E E E E E
--------------------------|--------------------------|
--------------------------|--------------------------|
--------------------------|--------------------7--7--|
--------------9--9--------|--------------6--6--------|
--8--8--------------8--8--|--------5--5--------------|
--------7--7--------------|--4--4--------------------|


PM PM PM PM PM PM
E E E E E E E E Q Q Q Q
--------------------------|-----------------------||
--------------------------|-----------------------||
--------------------------|----------------------*||
--------------9--9--------|----------------------*||
--8--8--------------8--8--|--8----7----4----5-----||
--------7--7--------------|--6----5----2----3-----||


S S S S S S S S S S S S S S S S S S S S S S S S S S S S S S S S
-----------------------------------|----------------------------------|
-----------------------------------|----------------------------------|
*----------------------------------|----------------------------------|
*----------------------------------|----------------------------------|
-----------------------------------|--5-5-5-5-4-4-4-4-5-5-5-5-8-8-8-8-|
---7-7-7-7-0-0-0-0-9-9-9-9-7-7-7-7-|----------------------------------|


S S S S S S S S S S S S S S S S S S S S S S S S S S S S S S S S
----------------------------------|-----------------------------------||
----------------------------------|-----------------------------------||
----------------------------------|----------------------------------*||
----------------------------------|----------------------------------*||
----------------------------------|--5-5-5-5-4-4-4-4-5-5-5-5-8-8-8-8--||
--7-7-7-7-0-0-0-0-9-9-9-9-7-7-7-7-|-----------------------------------||


PM PM PM PM PM PM
Q Q Q Q Q Q Q Q
-----------------------|-----------------------|
-----------------------|-----------------------|
*----------------------|-----------------------|
*----------------------|-----------------------|
---4----5----2----4----|--8s----7----4----5----|
---2----3----0----2----|--6s----5----2----3----|


W
S S S S S S S S S S S S S S S S S S S S S S S S S S S S Q
----------------------------------|----------------------------------||
----------------------------------|----------------------------------||
----------------------------------|---------------------------------*||
----------------------------------|--------------------------<>5----*||
----------------------------------|----------------------------------||
--2-2-2-2-3-3-3-3-0-0-0-0-2-2-2-2-|--6-6-6-6-5-5-5-5-2-2-2-2---------||


PM PM PM PM PM PM
Q Q Q Q Q Q Q Q
----------------------|-----------------------|
----------------------|-----------------------|
----------------------|-----------------------|
----------------------|-----------------------|
--4----5----2----4----|--8s----7----4----5----|
--2----3----0----2----|--6s----5----2----3----|


W
S S S S S S S S S S S S S S S S S S S S S S S S S S S S Q
----------------------------------|---------------------------------|-------|
----------------------------------|---------------------------------|-------|
----------------------------------|---------------------------------|-------|
----------------------------------|--------------------------<>5----|-------|
----------------------------------|---------------------------------|-------|
--2-2-2-2-3-3-3-3-0-0-0-0-2-2-2-2-|--6-6-6-6-5-5-5-5-2-2-2-2--------|-------|


Rythm Guitar in Solos

PM PM PM PM PM PM PM PM PM PM PM PM
E S S S S S S E S S S S S S
--------------------------------------------|
--------------------------------------------|
--------------------------------------------|
--------------------------------------------|
--1--------------------1--------------------|
--3--3--3--3--3--3--3--3--3--3--3--3--3--3--|


PM PM PM PM PM PM PM PM PM PM PM PM
E S S S S S S E S S S S S S
--------------------------------------------|
--------------------------------------------|
--------------------------------------------|
--------------------------------------------|
--4--------------------4--------------------|
--2--2--2--2--2--2--2--2--2--2--2--2--2--2--|


PM PM PM PM PM PM PM PM PM PM PM PM
E S S S S S S E S S S S S S
--------------------------------------------|
--------------------------------------------|
--------------------------------------------|
--------------------------------------------|
--1--------------------1--------------------|
--3--3--3--3--3--3--3--3--3--3--3--3--3--3--|


PM PM PM PM PM PM PM PM PM PM PM PM
E S S S S S S E S S S S S S
--------------------------------------------|
--------------------------------------------|
--------------------------------------------|
--------------------------------------------|
--4--------------------4--------------------|
--6--6--6--6--6--6--6--6--6--6--6--6--6--6--|


Solo Kimball

|--3--| |--3--| |--3--| |--3--| |--3--| |--3--| |--3--| |--3--|
S S S S S S S S S S S S S S S S S S S S S S S S
--14-15-18-14-15-12-14-15-18-14-15-12-14-15-18-14-15-12-14-15-18-14-15-12-|
--------------------------------------------------------------------------|
--------------------------------------------------------------------------|
--------------------------------------------------------------------------|
--------------------------------------------------------------------------|
--------------------------------------------------------------------------|


3 3 3 3 3 3 3 3 |--3--| |--3-| |--3-| 3
S S S S S S S S S S S S S S S S S S S S S S
--14-15-14-12-10-9----------------------------------------------|
-------------------11-12-11---------12-11-----------------------|
----------------------------12-11-9-------12-12-11-9------------|
-----------------------------------------------------12-11-9----|
-------------------------------------------------------------13-|
----------------------------------------------------------------|


|--3--| |--3--| |--3--| |--3--| |--3--| |--3--| |--3--| |--3--|
S S S S S S S S S S S S S S S S S S S S S S S S
--------------------------------------------------------------------------|
--------------------------------------------------------------------------|
-----------------------------------------------------------------12-14-15-|
--------------------------------12-14-12-12-14-15-14-12-12-14-15----------|
-----12-13-15-13-12----12-13-15-------------------------------------------|
--15----------------15----------------------------------------------------|


|--3--| |--3--| |--3--| |--3--|
S S S S S S S S S S S S H
-------------------------------------------------|
-----------13----------------13-15-16-17b--------|
--12-14-15----15-14-12-14-15---------------------|
-------------------------------------------------|
-------------------------------------------------|
-------------------------------------------------|


Solo Gallagher
\1/
W
--15-------------------------------------------------|
-----------------------------------------------------|
-----------------------------------------------------|
-----------------------------------------------------|
-----------------------------------------------------|
-----------------------------------------------------|

|--3-| |--3--| 3
S S S S S S S S H E
-------------------9----9b-------------------------------------------15b-----|
----------11----11---12------------------------------------------------------|
-----9-12----12--------------------------------------------------------------|
--11-------------------------------------------------------------------------|
-----------------------------------------------------------------------------|
-----------------------------------------------------------------------------|


--19-17-15------------------------------------------------------------------|
-----------19-17-15---------------------------------------------------------|
-------------------------19-17-16-14-16-17-16-14-12-11----------11-12-14-12-|
-------------------------------------------------------14-12-14-------------|
----------------------------------------------------------------------------|
----------------------------------------------------------------------------|

--------------------------------<>12--------|-------------------------------|
--------------------------------------------|-------------------------------|
-----11-12-11----------11-12-14-------------|-------------------------------|
--14----------14-12-14----------------------|-------------------------------|
--------------------------------------------|--------------------5s--4--8---|
--------------------------------------------|--3--3--3--6--6--6--3s--2--6---|

Arpeggio Part (x2)

S S S S S S S S S S E E E
|------------12-15-12---------------------------|
|---------14----------14------------------------|
|*-----12----------------12---------------------|
Lead |*--14----------------------14-11-----11--14----|
|---------------------------------13--------------|
|-------------------------------------------------|

S S S S S S S S S S S S S S S S
|------------------------------------------|
|------------------------------------------|
Rythm |*------------------------------------|
|*-----------------------------------------|
|------------------------------------------|
|---3-3-3-3-3-3-3-3-3-3-3-3-3-3-3-3--------|


S S S S S S S S S S E E E
-----------15-18-15-------------------------------|
--------17----------17----------------------------|
Lead -----15----------------15---------------------|
--17----------------------17-14-----14--17--------|
--------------------------------16----------------|
--------------------------------------------------|


S S S S S S S S S S S S S S S S
|-----------------------------------------|
|-----------------------------------------|
|-----------------------------------------|
Rythm |------------------------------------|
|-----------------------------------------|
|--6-6-6-6-6-6-6-6-6-6-6-6-6-6-6-6--------|

1st Time
S S S S S S S S E E E E E E E E E E E E
----------9-12-9--------------------|---------------------------||-------|
-------11--------11-----------------|--------------------8--11--||-------|
Lead -----9--------------9------------9--|--------------6--9---------||---|
--11------------------11--8--11-----|--------5--8---------------||-------|
------------------------------------|--4--7---------------------||-------|
------------------------------------|---------------------------||-------|

2nd Time
|-------------------------|
|-------------------------|
|-------------------------|
|------------2------------|
|------1--4--------1--4---|
|0--3-----------0---------|

S S S S S S S S S S S S S S S S E E E E E E E E
------------------------------------|----------------------------------|
------------------------------------|----------------------------------|
Ryhtm ------------------------------------|-----------------------------|
------------------------------------|--------------5--8--8--11---------|
------------------------------------|--------4--7----------------------|
--0-0-0-0-0-0-0-0-0-0-0-0-0-0-0-0---|--3--6----------------------------|


PM PM PM PM PM PM PM PM PM PM
E E E E E E E E E E E E E E E E
--------------------------|---------------------------|
--------------------------|---------------------------|
--------------------------|---------------------------|
--------------2-----------|---------------------------|
--------1--4--------1--4--|--7s--8-----5-----8-----7--|
--0--3-----------0--------|--5s--6--0--3--0--6--0--5--|


PM PM PM PM PM PM PM PM PM PM PM PM PM PM
E E E E S S S S S S S S E E E E E E E E
--------------------------------------|---------------------------|
--------------------------------------|---------------------------|
--------------------------------------|---------------------------|
--------------------------------------|---------------------------|
-----2--------------------------------|--7s--8-----5-----8-----7--|
--0--0--0--0--5--5--6--6--3--3--6--6--|--5s--6--0--3--0--6--0--5--|


PM PM PM PM PM PM PM PM PM PM
E E E E E E E E E E E E E E E E
--------------------------|---------------------------|
--------------------------|---------------------------|
--------------------------|---------------------------|
--------------------------|---------------------------|
-----2--------------------|--7s--8-----5-----8-----7--|
--0--0--0--0--0--0--0--0--|--5s--6--0--3--0--6--0--5--|


PM PM PM PM PM PM PM PM PM PM PM PM PM PM
E E E E S S S S S S S S E E E E E E E E
--------------------------------------|---------------------------|
--------------------------------------|---------------------------|
--------------------------------------|---------------------------|
--------------------------------------|---------------------------|
-----2--------------------------------|--7s--8-----5-----8-----7--|
--0--0--0--0--5--5--6--6--3--3--6--6--|--5s--6--0--3--0--6--0--5--|


PM PM PM PM PM PM
E E E E E E E E E E E E E E E E
---------------------------||----------------------------|
---------------------------||----------------------------|
---------------------------||*---------------------------|
---------------------------||*---------------------------|
-----5-----8-----5s--8--8--||---7s--8-----5-----8-----7--|
--0--3--0--6--0--3s--6--6--||---5s--6--0--3--0--6--0--5--|


PM PM PM PM PM PM PM PM PM PM PM PM PM PM
E E E E S S S S S S S S E E E E E E E E
--------------------------------------|---------------------------|
--------------------------------------|---------------------------|
--------------------------------------|---------------------------|
--------------------------------------|---------------------------|
-----2--------------------------------|--7s--8-----5-----8-----7--|
--0--0--0--0--5--5--6--6--0--0--3--3--|--5s--6--0--3--0--6--0--5--|


PM PM PM PM PM PM PM PM PM PM
E E E E E E E E E E E E E E E E
--------------------------|---------------------------|
--------------------------|---------------------------|
--------------------------|---------------------------|
--------------------------|---------------------------|
-----2--------------------|--7s--8-----5-----8-----7--|
--0--0--0--0--0--0--0--0--|--5s--6--0--3--0--6--0--5--|


PM PM PM PM PM PM PM PM PM PM PM PM PM PM
E E E E S S S S S S S S E E E E E E E E
--------------------------------------|---------------------------|
--------------------------------------|---------------------------|
--------------------------------------|---------------------------|
--------------------------------------|---------------------------|
-----2--------------------------------|--7s--8-----5-----8-----7--|
--0--0--0--0--5--5--6--6--0--0--3--3--|--5s--6--0--3--0--6--0--5--|


PM PM PM
E E E E E E E E E E H. H E E Q
----------------------------||---------------------|----------------------|
----------------------------||---------------------|----------------------|
---------------------------*||---------------------|----------------------|
---------------------------*||---------------------|----------------------|
-----5-----8-----5s--8--8---||--2------------------|-----------5--4--8----|
--0--3--0--6--0--3s--6--6---||--0------------------|-----------3--2--6----|


PM PM PM PM PM PM PM PM PM PM
E E E E E E E E E E E E E E E E
|---------------------------|--------------------------|
|---------------------------|--------------------------|
|*--------------------------|--------------------7--7--|
|*--------------9--9--------|--------------6--6--------|
|---8--8--------------8--8--|--------5--5--------------|
|---------7--7--------------|--4--4--------------------|


PM PM PM PM PM PM PM PM PM PM PM PM
E E E E E E E E Q Q Q Q E E E E E E E E
--------------------------|----------------------|--------------------------|
--------------------------|----------------------|--------------------------|
--------------------------|----------------------|--------------------------|
--------------9--9--------|----------------------|--------------9--9--------|
--8--8--------------8--8--|--8----7----4----5----|--8--8--------------8--8--|
--------7--7--------------|--6----5----2----3----|--------7--7--------------|


PM PM PM PM PM PM PM PM PM PM
E E E E E E E E E E E E E E E E Q Q Q Q
--------------------------|--------------------------|----------------------|
--------------------------|--------------------------|----------------------|
--------------------7--7--|--------------------------|----------------------|
--------------6--6--------|--------------9--9--------|----------------------|
--------5--5--------------|--8--8--------------8--8--|--8----7----4----5----|
--4--4--------------------|--------7--7--------------|--6----5----2----3----|


S S S S S S S S S S S S S S S S S S S S S S S S S S S S S S S S
-----------------------------------|----------------------------------|
-----------------------------------|----------------------------------|
*----------------------------------|----------------------------------|
*----------------------------------|----------------------------------|
-----------------------------------|--5-5-5-5-4-4-4-4-5-5-5-5-8-8-8-8-|
---7-7-7-7-0-0-0-0-9-9-9-9-7-7-7-7-|----------------------------------|


S S S S S S S S S S S S S S S S S S S S S S S S S S S S S S S S
----------------------------------|-----------------------------------||
----------------------------------|-----------------------------------||
----------------------------------|----------------------------------*||
----------------------------------|----------------------------------*||
----------------------------------|--5-5-5-5-4-4-4-4-5-5-5-5-8-8-8-8--||
--7-7-7-7-0-0-0-0-9-9-9-9-7-7-7-7-|-----------------------------------||


PM PM PM PM PM PM
Q Q Q Q Q Q Q Q
-----------------------|-----------------------|
-----------------------|-----------------------|
*----------------------|-----------------------|
*----------------------|-----------------------|
---4----5----2----4----|--8s----7----4----5----|
---2----3----0----2----|--6s----5----2----3----|


W
S S S S S S S S S S S S S S S S S S S S S S S S S S S S Q
----------------------------------|----------------------------------||
----------------------------------|----------------------------------||
----------------------------------|---------------------------------*||
----------------------------------|--------------------------<>5----*||
----------------------------------|----------------------------------||
--2-2-2-2-3-3-3-3-0-0-0-0-2-2-2-2-|--6-6-6-6-5-5-5-5-2-2-2-2---------||


PM PM PM PM PM PM
Q Q Q Q Q Q Q Q
----------------------|-----------------------|
----------------------|-----------------------|
----------------------|-----------------------|
----------------------|-----------------------|
--4----5----2----4----|--8s----7----4----5----|
--2----3----0----2----|--6s----5----2----3----|


W
S S S S S S S S S S S S S S S S S S S S S S S S S S S S Q
----------------------------------|---------------------------------|
----------------------------------|---------------------------------|
----------------------------------|---------------------------------|
----------------------------------|--------------------------<>5----|
----------------------------------|---------------------------------|
--2-2-2-2-3-3-3-3-0-0-0-0-2-2-2-2-|--6-6-6-6-5-5-5-5-2-2-2-2--------|


W
S S S S S S S S S S S S S S S S S S S S S S S S S S S S Q
----------------------------------|---------------------------------|
----------------------------------|---------------------------------|
----------------------------------|---------------------------------|
----------------------------------|--------------------------<>5----|
----------------------------------|---------------------------------|
--2-2-2-2-3-3-3-3-0-0-0-0-2-2-2-2-|--6-6-6-6-5-5-5-5-2-2-2-2--------|


PM PM PM PM PM PM PM PM
Q Q Q Q Q Q Q Q
----------------------|----------------------|-------||
----------------------|----------------------|-------||
----------------------|----------------------|-------||
----------------------|----------------------|-------||
--4----5----2----4----|--8----7----4----5----|-------||
--2----3----0----2----|--6----5----2----3----|-------||


Duration Legend
---------------
W - whole
H - half
Q - quarter
E - 8th
S - 16th
T - 32nd
X - 64th
. - note dotted
|-n-| - n-tuplets


Tablature Legend
----------------
L - tied note
x - dead note
g - grace note
(n) - ghost note
> - accentuded note
NH - natural harmonic
AH - artificial harmonic
TH - tapped harmonic
SH - semi harmonic
PH - pitch harmonic
h - hammer on
p - pull off
b - bend
br - bendRelease
pb - preBend
pbr - preBendRelease
brb - bendReleaseBend
\n/ - tremolo bar dip
\n - tremolo bar dive
-/n - tremolo bar Release up
/n\ - tremolo bar inverted dip
/n - tremolo bar return
-\n - tremolo bar Release down
S - shift slide
s - legato slide
/ - slide into from below or out of upwards
\ - slide into from above or out of downwards
~ - vibrato
W - wide vibrato
tr - trill
TP - tremolo picking
T - tapping
S - slap
P - pop
< - fade in
^ - brush up
v - brush down

 
»
Tvoje obľúbené položky
Tvoje obľúbené položky
»
Nové albumy interpreta
Nové albumy interpreta
VINYL Dying Fetus Wrong one to fuck with lp [vinyl]
VINYL Wrong one
to fuck
with lp
[vinyl]
CD Dying Fetus Wrong one to fuck with
CD Wrong one
to fuck
with
VINYL Dying Fetus Reign supreme ltd. [vinyl]
VINYL Reign
supreme
ltd.
[vinyl]
VINYL Dying Fetus Descend into depravity ltd [vinyl]
VINYL Descend
into
depravity
ltd
[vinyl]
VINYL Dying Fetus Stop at nothing ltd. [vinyl]
VINYL Stop at
nothing
ltd.
[vinyl]
VINYL Dying Fetus War of attrition ltd. [vinyl]
VINYL War of
attrition
ltd.
[vinyl]
»
Najnovšie videá
Najnovšie videá

Parasites of Catastrophe - Dying Fetus

Yura - Parasites Of The Catastrophe (Dyi

Dying Fetus Fate Of The Condemned

Parasites of Catastrophe - Dying Fetus [

DYING FETUS - Homicidal Retribution

Dying Fetus Killing On Adrenaline

»
Najnavštevovanejšie piesne
Najnavštevovanejšie piesne



home | interpreti | register piesní | cd & dvd shop | pripomienky/nápady | kontakt | ochrana údajov | inzercia

TOPlist