Rolling Stones

piesne (760)

  texty (449) / preklady (106)
  akordy (283) / taby (199)
  noty (0) / slideshow (0)

články (358)
fotogaléria
diskusia
videá
diskografia
v obchode
odkazy
koncerty
sťahuj



pridaj vlastný článok

Rolling Stones:
Před Rolling Stones zahrají Pražský výběr a Gotthard - Před Rolling Stones zahrají Pražský výběr a Gotthard Vydáno: 12.06.2018 08:21 ... - musicserver.cz


Rolling Stones:
Pražské oslavy 115 let Harley-Davidson započnou koncertem The Rolling Stones - 6 června 2018 Šárka Blahoňovská Žádné komentáře Novinky Pražské oslavy ... - rockandpop.cz


Rolling Stones:
Rolling Stones zveřejnili klip ze San Jose 1999 - Obrázek: Rolling Stones zveřejnili klip ze San Jose 1999 17. 5. 2018 O tom, že “St... - radiobeat.cz


Rolling Stones:
Velká kolekce vinylů od “Stounů” vyjde v červnu - Obrázek: Velká kolekce vinylů od “Stounů” vyjde v červnu 26. 4. 2018 Na polovi... - radiobeat.cz


Rolling Stones:
Zájem o vstupenky na Rolling Stones zablokoval on-line předprodej - Aktualizace: 09.03.2018 11:49 Vydáno: 09.03.2018, 11:09 foto ***Britská legendární ... - ceskenoviny.cz


Mick Jagger:
V létě v Praze zahrají The Rolling Stones - V létě v Praze zahrají The Rolling StonesFotogalerie (6) Autor: Iva Boková 26.02.2... - abradio.cz


Rolling Stones:
Do Prahy se vrací The Rolling Stones. Začátkem čer - Do Prahy se vrací The Rolling Stones. Začátkem července zahrají v Letňanech Vyd... - musicserver.cz


Ella Fitzgerald:
Nové desky 48/2017 - od U2 přes Chrise Stapletona po Hradišťan - Vydáno: 05.12.2017 23:15 v sekci Nové desky - Tomáš Parkan a Petra Hubáčková Prvn... - musicserver.cz


36 Crazyfists:
Nové desky 39/2017 - od Hurts přes Shaniu Twain po Miley Cyrus - 02.10.2017 05:59 - Tomáš Parkan a Petra Hubáčková V tomto týdnu nás čeká... - musicserver.cz


Mick Jagger:
Reportáž: Výlet za nejslavnější rockovou kapelou. V Rakousku zahráli
Rolling Stones, čtyřem členům je 293 let
- Daniel Konrád - vedoucí kulturní rubriky 18. 9. 2017 00:00 (aktualizováno 22:38) Pa... - ihned.cz


 

Rolling Stones

Fanúšikov: 19



A B C Č D E F G H CH I J K L Ľ M N O P Q R S Š T U V W X Y Z Ž



ako:
Rolling Stones - Paint It Black Version 3
Rolling Stones - Paint It Black Version 3

tlač

edituj
Rok vzniku: 1964
Pesničku videlo 2497 návštevníkov.

Kvalita tabov : bez hodnotenia
Hodnotilo ľudí: 0 ohodnoť aj ty
Prispievateľ:

Diwa Swina
Autor hudby: Rolling Stones
Key:
^(over tab-downstroke
v-upstroke
/-slide
h,p-hammer on,pull off
^(in tab)-bend

a)intro(0:00)

Gtr.1(clean elec.) let ring V
No Chord
e--|--------0-----1-----3-----1-----0----|-----------------------0---------|-
B-4|--3--------------------------------3-|-3-----2-----3/5-0h2h3---3p2p0-2-|-
G--|-----------------------------------2-|---------------------------------|-
D-4|-----0-----0-----0-----0-----0-------|----0-----0----------------------|-
A--|-------------------------------------|---------------------------------|-
E--|-------------------------------------|---------------------------------|-

b)intro(0:11)
Gtr.1(elec.)
Dsus2 v v
e-|------0-------------|--0-------------|-
B-|------3-------------|--3-------------|-
G-|------0-------------|--2-------------|-
D-|------0-------------|--0-------------|-
A-|------0-------------|--0-------------|-
E-|--------------------|----------------|-
||
|| Gtr.2(acous.)
|| ^ v v v v v v v v
e-|--------------------|----------------|-
B-|------3-3--3--3--3--|----3--3--3--3--|-
G-|------2-2--2--2--2--|----2--2--2--2--|-
D-|------0-0--0--0--0--|----0--0--0--0--|-
A-|------0-0--0--0--0--|----0--0--0--0--|-
E-|--------------------|----------------|-

c)verse(0:14)
Gtr.1(clean elec.)
N.C.
e-|----------0---1---|-3---1---0-----|--------------|---------------|-
B-|------3-----------|-------------3-|-3--2---3-/-5-|-3---2-0h2-(2)-|-
G-|------------------|---------------|--------------|---------------|-
D-|--------0---0---0-|---0---0---0---|--------------|---------------|-
A-|------------------|---------------|--------------|---------------|-
E-|------------------|---------------|--------------|---------------|-
||
||Gtr.2(acous.)
|| D5 A5 A#5 A5 A#5 A5
e-|------------------|---------------|--------------|---------------|-
B-|----3--3--3--3--3-|-3---3---3---3-|--------------|---------------|-
G-|----2--2--2--2--2-|-2---2---2---2-|-(2)(2)(2)(2)-|-(2)(2)(2)(2)--|-
D-|----0--0--0--0--0-|-0---0---0---0-|--2--2--3--2--|--2--2--3--2---|-
A-|----0--0--0--0--0-|-0---0---0---0-|--0--0--0--0--|--0--0--0--0---|-
E-|------------------|---------------|--------------|---------------|-
||
||Gtr.3(sitar arr.for clean elec)
||
e-|------------------|-full----------|-full---------|-full----------|-
B-|--------3--5--6---|6^(6)-6--5--3--|3^(33)2-3--5--|3^(33)2--------|-
G-|------------------|---------------|--------------|---------------|-
D-|------------------|---------------|--------------|---------------|-
A-|------------------|---------------|--------------|---------------|-
E-|------------------|---------------|--------------|---------------|-

d)Chorus Chords(figure rhythm yourself) e)outro(2:21)
Dm C F to C,Dm,then Dm,C,F,C,then G A Dsus2 Dsus4
e-|-1---0---1-|- -|-3---5--|- -|--0------3----|-
B-|-3---1---1-|- -|-0---2--|- -|--3------3----|-
G-|-2---0---2-|- -|-0---2--|- -|--2------2----|-
D-|-0---2---3-|- -|-0---2--|- -|--0------0----|-
A-|-x---3---3-|- -|-2---0--|- -|--x------x----|-
E-|-x---x---1-|- -|-3---x--|- -|--x------x----|-

e)outro Bolero rhythm between Dm and A
one slash.one strum
| |||| ||| | | ||||||||| | | |||| ||| | | |||| | |
/ //// /// | / ///////// | / //// /// | / //// / |
| | | |

 
»
Tvoje obľúbené položky
Tvoje obľúbené položky
»
Nové albumy interpreta
Nové albumy interpreta
BRD Rolling Stones From the vault: no security - san jose 1999 [bluray]
BRD From the
vault: no
security -
san jose
1999
[bluray]
DVD Rolling Stones From the vault: no security - san jose 1999
DVD From the
vault: no
security -
san jose
1999
20xVINYL Rolling Stones Rolling stones [vinyl]
20xVINYL Rolling
stones
[vinyl]
CD Rolling Stones Riding the waves
CD Riding the
waves
VINYL Rolling Stones Riding the waves [vinyl]
VINYL Riding the
waves
[vinyl]
VINYL Rolling Stones British radio broadcasts [vinyl]
VINYL British
radio
broadcasts
[vinyl]
»
Najnovšie videá
Najnovšie videá

Guitar Hero 3 song The Rolling Stones -

PAINT IT BLACK LYRICS | ORIGINAL SONG |

Call of Duty: Black Ops 3 Trailer Song

Mafia 3 Soundtrack - The Rolling Stones

Paint it Black - Vietnam War

OFFICIAL - Westworld Soundtrack - Paint

»
Najnavštevovanejšie piesne
Najnavštevovanejšie piesne
Angie - verzia 1 - akordy a text

Angie - akordy

Satisfaction - Akordy a text

Angie - Konečná Verze - akordy

Angie - verzia 2 - akordy a text

Angie - verzia 3 - akordy a text

Paint It Black - akordy a text

Angie - preklad

Wild Horses - akordy a text

Wild Horses - preklad

I Can´t Get No ( Satisfaction ) - akordy a text

Anybody Seen My Baby? - preklad

Wild Horses - akordy a text

Gimme Shelter - preklad

(I Can´t Get No) Satisfaction - preklad

Satisfaction - preklad

Ruby Tuesday - akordy a text

Angie - taby

Sympathy For The Devil - preklad

(i Can\'t Get No) Satisfaction - akordy a text

viac




home | interpreti | register piesní | cd & dvd shop | pripomienky/nápady | kontakt | ochrana údajov | inzercia

TOPlist