Van Halen

piesne (224)

  texty (44) / preklady (4)
  akordy (3) / taby (175)
  noty (0) / slideshow (0)

články (38)
fotogaléria
diskusia
videá
diskografia
v obchode
odkazy
koncerty
sťahuj



pridaj vlastný článok

Sammy Hagar:
Sammy Hagar oslávi sedmdesátiny stylově - hodlá oslavit sedmdesátiny patřičně stylově! Pokud máte možnost, sledujte tuto ne... - metalopolis.net


Adele:
Madonna: Najlepšie zarábajúca hudobníčka - Madonna je na prvom mieste medzi najlepšie zarábajúcimi hudobníkmi roku 2012. Presne ... - bang


Van Halen:
Eddie Van Halen podstúpil operáciu hrubého čreva - Spoluzakladateľ americkej rockovej formácie Van Halen Eddie Van Halen musel pre divert...


Van Halen:
Najobľúbenejšou športovou piesňou je Jump od Van Halen - Najobľúbenejšou športovou piesňou ľudí z britského hudobného priemyslu je Jump ...


Van Halen:
Van Halen preložili 31 koncertov, sú za tým zrejme hádky členov - Rocková formácia Van Halen vo štvrtok bez udania dôvodu preložila 31 koncertov v am...


Katarína Knechtová:
Nová alba - Ringo Starr, Katarína Knechtová i Van Halen - novinky.cz


Van Halen:
Téměř zbytečný comeback - musicserver.cz


Van Halen:
Van Halen: 28 let čekání je u konce, poslechněte si nové album - ireport.cz


Van Halen:
Podívejte se na "Tattoo" Van Halen - musicserver.cz


Van Halen:
Van Halen zverejnili termín vydania a obal nového albumu - Americká rocková formácia Van Halen zverejnila termín vydania a obal nového albumu....


 

Van Halen

Fanúšikov: 9



A B C Č D E F G H CH I J K L Ľ M N O P Q R S Š T U V W X Y Z Ž



ako:
Van Halen - Panama Version 2
Van Halen - Panama Version 2

tlač

edituj
Rok vzniku: 1998
Pesničku videlo 2233 návštevníkov.

Kvalita tabov : bez hodnotenia
Hodnotilo ľudí: 0 ohodnoť aj ty
Prispievateľ:

Diwa Swina
Autor hudby: Van Halen
Intro
Q=144
4/4
Gtr I
PM| PM| PM| PM| PM
E E E E E E E E E E E E E E E E
|------------------|------------------|
|---9-----10-----7-|-----9-----10---7-|
|---9------9-----8-|-----9------9---8-|
|---9------9-----9-|-----9------9---9-|
|-----7-7----7-7---|-7-7---7-7----7---|
|------------------|------------------|


\3
PM| PM|
a E E E E E E E E +E. T T Q +Q. E
|-------------------|-----------------------|
|-----7-----8-----5-|-(5)-----0---(0)-------|
|-----7-----7-----6-|-(6)---x---------------|
|-----7-----7-----7-|-(7)-x-----------------|
|-7s5---5-5---5-5---|-----------------------|
|-------------------|-------------------0---|


PM| PM| PM| PM| PM
+E E E E E E E E E E E E E E E E
|--------------------|------------------|
|-----9-----10-----7-|-----9-----10---7-|
|-----9------9-----8-|-----9------9---8-|
|-----9------9-----9-|-----9------9---9-|
|-------7-7----7-7---|-7-7---7-7----7---|
|-(0)----------------|------------------|


PM| PM|
a E E E E E E E E +E Q. Q. S S
|-------------------|--------------0-0--|
|-----7-----8-----5-|-(5)----------5-5--|
|-----7-----7-----6-|-(6)----------6-6--|
|-----7-----7-----7-|-(7)----------6-6--|
|-7s5---5-5---5-5---|-----xs==x----4-4--|
|-------------------|-----xs==x---------|


PM
W E E E E +E E E E
|-0-----------|-------------------|
|-5-----------|-------4-(4)-5p4---|
|-6-----------|-------4-(4)-4-----|
|-6-----------|-------4-(4)-4-----|
|-4-------4-4-|-4-4-4-----------0-|
|-------------|-------------------|
H. E E


~~~~~
E E E E E Q. +E a +E +H E S S
|----------------|----------------------------------|
|-4s2---2---2----|-(2)------------------------------|
|-4s2---2---2----|-(2)-------------------------6-6--|
|-------2---2----|-(2)-------------------------6-6--|
|-------0---0----|-(0)-[2]b4==([4])r([2])----0-4-4--|
|----------------|----------------------------------|


PM PM| PM---| PM
H E E E E +E Q E E E E E E E E E E Q. +H Q. E
|--------------|------------------|----------------|--------------------|
|--------4---4-|-(4)h5--4-4-5p4---|-4s2---2---2----|-(2)------2------4--|
|-6--------6-6-|--------4-4-4-----|-4s2---2---2----|-(2)------2------4--|
|-6------------|--------4-4-4-----|-------2---2----|-(2)------2------4--|
|-4------------|----------------0-|-------0---0----|-(0)--0-0-0--0-0-2--|
|--------------|------------------|----------------|--------------------|
W +Q E E E E E E


E E E E E E E E E E E E E E E E
|---0-----0-----<5>-|---------<5>-------------------||
|-----4-----4-------|-<4>----------0---0---0---0----||
|-------4-----4-----|-----<4>-----<4>-<4>-<4>-<4>---||
|-------------------|-------------------------------||
|-------------------|-------------------------------||
|-------------------|-----------------------------0-||


Pre-Verse
PM PM| PM PM PM
+E E E E E E E E E E E E a E Q E
|-------------------|------------------|
|-----------3-----2-|---3--------------|
|-------2---2-----2-|---2-2------------|
|-------2---0-0-0-2-|---0-2---5s7s5----|
|-------0-0-------0-|-0---0---5s7s5----|
|-(0)-0-------------|-------0--------0-|


PM| PM PM| PM PM PM| PM PM|
E E E E E E E E E E E E a E Q E E E E E E E E E
||--------------------|---2---------------||-------------------|
||o-----------3-----2-|---3-2------------o||-----------3-----2-|
||------2-----2-----2-|---2-2-------------||-----2-----2-----2-|
||------2-----0-0-0-2-|---0-2---5s7s5-----||-----2-----0-0-0-2-|
||o-----0-(0)-------0-|-0---0---5s7s5--2-o||-----0-(0)-------0-|
||--0-0---------------|-------0--------0--||-0-0---------------|


Verse 1
\0.5/ \0.5/ \0.5/
PM PM
E E E E a E Q E E Q. +E +E +Q
|---2--------------||------------------------------|
|---3-2------------||------------------------------|
|---2-2------------||------------------------------|
|---0-2---5s7s5--0-||---2----(2)----(2)----(2)-----|
|-0---0---5s7s5--0-||---2----(2)----(2)----(2)-----|
|-------0----------||---0----(0)----(0)----(0)-----|


+H E E E E E Q. +H
|-----------0-----|---0----(0)-------|
|-----------0---2-|---3----(3)-------|
|---------------2-|---2----(2)-------|
|-(2)-------------|------------------|
|-(2)-------------|------------------|
|-(0)---0-0-------|------------0---x-|
+Q. E E E Q H E E E E


~~ PM--|
+H H E Q. +H
|-(0)---------------|------------------|
|-(3)---------------|------------------|
|-(2)---------------|------------------|
|-------------x---0-|---2----(2)-------|
|-------------x---0-|---2----(2)-------|
|--0--0---0-0-------|------------0-0-0-|
E E E E E E E E H E E E E


PM
+H +E E E E E Q. +E Q E
|---------------------|---0----(0)-0-----|
|---------------0---2-|---3----(3)-3-----|
|---------------0---2-|---2----(2)----2--|
|-(2)-------(2)-------|------------------|
|-(2)-------(2)-------|------------------|
|--0--0---0-(0)-------|------------------|
E E E E +E E Q


+Q Q Q. S S H E E Q E E E E E E S E S Q. E E E E E
|-------------------|--------0----|-------------------|------0--0---------|
|-------------------|----------0--|-0-----0-----------|------------0------|
|-(2)-----------4-4-|-4----4------|---3-----3-------x-|-6------------6----|
|---------------4-4-|-4-----------|-----4-------4p2-x-|-6------(6)-----6--|
|------x\--x\-------|-------------|-----------4-------|-4------(4)--------|
|------x\--x\---2-2-|-2-----------|-------------------|-------------------|
W H +Q. E


~~~~~~ ~~
H Q Q E E E E +Q. E E Q. Q E E
|-^0-------------|-----------------|---------------|
|-^0-------------|-----------------|---------------|
|-^6-------------|-----------------|-------------4-|
|-^6-------------|-----------------|-------------4-|
|-^4----x\-------|---5-----------3-|-------------2-|
|-------x\--12\--|-----6-5-(5)-----|-4-3----2--0---|


PM----|
E E E E E E E E E E E E E E E e
|---<4>-----0-----0-|---<5>------------------------||
|-------4-----4-----|-4-----<4>-<4>-<4>-<4>-<4>----||
|---------4-----4---|-------<4>-<4>-<4>-<4>-<4>----||
|-------------------|------------------------------||
|-------------------|------------------------------||
|-------------------|---------------------------0--||


Chorus 1
PM PM PM| PM ~ PM-| PM PM| ~
E E E E E E E E E E E E E Q E +E E E E E E E E E E E E E Q E
|-----------------|----------------|-----------2-------|-----------------|
|---------3-----2-|---3------------|-----------3-------|---3-2-----------|
|-----2---2-----2-|---2-2----------|-------2---2-----2-|---2-2-----------|
|-----2---0-0-0-2-|---0-2----------|-------2---0-----2-|---0-2-----------|
|-----0-0-------0-|-0---0---0----2-|-(2)-2-0-0---0-0-0-|-----0---0----2--|
|---0-------------|-------0---3--0-|-(0)---------------|-------0---3--0--|


PM-| PM| PM PM
+E E Q E E E E E E E E a E Q E
|------------------|---2--------------|
|----------3-----2-|---3-2------------|
|-------2--2-----2-|---2-2------------|
|-------2--0-0-0-2-|---0-2---5s7s5----|
|-(2)---0--------0-|-0---0---5s7s5----|
|-(0)-0------------|-------0--------0-|


PM-| PM| PM
+E E Q E E E E E E E E a E E E E
|------------------|---2------------------||
|----------3-----2-|---3-2----------------||
|-------2--2-----2-|---2-2----------------||
|-------2--0-0-0-2-|---0-2-----5s7s5---0--||
|-------0--------0-|-----0-----5s7s5---0--||
|-(0)-0------------|-------(0)------------||


Verse 2
PM PM
E Q. +H E E E E E E E E E Q. +H +H H
|------------------|-----------0---0-|---0----(0)------|-(0)----------------|
|------------------|-----------0---2-|---3----(3)------|-(3)----------------|
|------------------|---------------2-|---2----(2)------|-(2)----------------|
|---2----(2)-------|-----------------|-----------------|-----------------0--|
|---2----(2)-------|-----------------|-----------------|-----------------0--|
|---0----(0)-0---0-|-0-x---0-0-------|------------0----|--0--0---0-(0)------|
E Q. +E E E E H E E Q E E E E +Q. E


PM
E Q. +H +H E E E E E Q. +Q E E +Q Q Q E S S
|-------------------|-----------------0-|---0----(0)----0-|-(0)----------------|
|-------------------|-------------0---2-|---3----(3)----3-|-(3)----------------|
|-------------------|-------------0---2-|---2----(2)--2---|----------------4-4-|
|---2-----(2)-------|-(2)---------------|-----------------|----------x\----4-4-|
|---2-----(2)-------|-(2)---------------|-----------------|------x\--x\--------|
|---0---0--0--0---0-|--0------0-0-------|-----------------|------x\------2-2-2-|
E Q E E E E E E E E E E E Q


PM------| ~~~~~~~~~
Q. E E E E E E E E E E E E E Q. E Q E E +E Q E +E E Q
|----------0-----|-----------------|------0--------|--------------------|
|------0-0---0---|-0-----0---------|--------0----0-|-(0)----------------|
|-4--------------|---3-----3-------|-6-------------|-----6--6-(6)-6-----|
|-4--------------|-----4-------4s6-|-6---------6---|-----6--6-(6)-6-----|
|----------------|-----------4-----|-4-------------|--------------------|
|-2------------2-|-----------------|---------------|----------------14\-|


~~~~~~ ~~
E E E E +Q. E E Q. Q E E
|-----------------|---------------|
|-----------------|---------------|
|---------------5-|-------------4-|
|---------------5-|-------------4-|
|---5-----------3-|-------------2-|
|-----6-5-(5)-----|-4-3----2--0---|

[ Tab from: http://www.guitaretab.com/v/van-halen/25123.html ]
PM------|
E E E E E E E E E E E E E E E E
|---<4>-----0-----0-|---0-0-0----------------||
|-------4-----4-----|-4-4-4-4-<4>-<4>-<4>----||
|---------4-----4---|---4-4-4-<4>-<4>-<4>----||
|-------------------|------------------------||
|-------------------|------------------------||
|-------------------|---------------------0--||


Chorus 2
PM PM PM| PM PM
+E E E E E E E E +E E E E a E Q E
|-----------2-------|-----2--------------|
|-------2---3-------|-----3-2------------|
|-------2---2-----2-|-(2)-2-2------------|
|-------2---0-0-0-2-|-(2)-0-2---5s7s5----|
|-------0-0-------0-|-(0)---0---5s7s5----|
|-(0)-0-------------|---------0--------0-|


PM-| PM PM|
+E E E E E E E E E E E E E E E E
|-----------2-------|---2---------------|
|-------2---3-----2-|---3-2-------------|
|-------2---2-----2-|---2-2---------0---|
|-------2---0-0-0-2-|---0-2---------0---|
|-----2-0-0-------0-|-----0-------x---2-|
|-(0)---------------|-------0-<4>---3-0-|


PM PM| PM PM-| PM|
+E E Q E E E E E E E E a E Q E +E E E E E E E E
|----------0-------|------------------|-----------3-----3-|
|-----0-0--3-----2-|---3-2------------|-----------3-----3-|
|-----2-2--2-----2-|---2-2------------|-------2---2-----0-|
|-----2-2--0-0-0-2-|---0-2---5s7s5----|-------2---0-0-----|
|-(2)-0-0--------0-|-----0---5s7s5--2-|-(2)---0-0-----0-3-|
|-(0)--------------|-------0--------0-|-(0)-0-------------|


+E Q E +E E E a E
|-(3)-3--------3--------------||
|-(3)-3--------3-----------7--||
|-(0)-0--------0---9b11==(11)-||
|-----------------------------||
|-(3)-2--0-(0)-3p0------------||
|-----------------------------||


Guitar Solo
\2/
~~~
+E E E a +E E E a Q +E Q +S S E a +Q.
|-----7-7-----------7-7------------|--------------------------------|
|-(7)-7-7-----------7-7--------7---|-(7)----------------------------|
|-(9)-----9b11-(11)-----9b11-(11)--|-(11)-9pb11r=(9)p8h9-9b11-(11)--|
|----------------------------------|--------------------------------|
|----------------------------------|--------------------------------|
|----------------------------------|--------------------------------|


~~~
|---5----| |------7------| |-----6-----|
+E E S S S S S S S S S S S S S S S S S S
|-----------------------7----------------7---------|
|-------7h10p7---7h10p7---10p7----7h10p7---10-7----|
|-(9)-9--------9---------------h9---------------h9-|
|--------------------------------------------------|
|--------------------------------------------------|
|--------------------------------------------------|


S S S S S S a +E +E. +S +T T a +E.
|----------------------------------------------------|
|-7--------------------------------------------------|
|---10p9p7-9-10-7b9==(9)-(9)r(7)b9-(9)p0-9b11==(11)--|
|----------------------------------------------------|
|----------------------------------------------------|
|----------------------------------------------------|


T T T T T T
|----3----| |---3----| |-3--| |-3--|
+E E E E E E E E E E E E
|-----------------------------------------|
|-----------------------------------------|
|-(9)-14pb16p9-12pb14p9-14p9-16p9-14p9-12p|
|-----------------------------------------|
|-----------------------------------------|
|-----------------------------------------|


\2.5/
E +S S E +E +S S S S +E. S
|-----------------------------------------|
|-----------------------------------------|
|-9r(9)p7h9b11==(11)r===(9)p7h9p7-(7)p(0)-|
|-----------------------------------------|
|-----------------------------------------|
|-----------------------------------------|


~
S a +E S E E E a +E +S S E E E a +E. +S E E E E
|------------------------------------|----------------------------||
|------------------------------------|----------------------------||
|---7b9-(9)---7-----7b9==(9)r(7)-----|----------------------------||
|---------------9----------------7---|----------------------------||
|-----------------9----------------9-|-8-7-5b7==(7)r(5)S9h10p9----||
|------------------------------------|-------------------------10-||


Interlude
~~~~~~~~~~~ PM--|
a +Q. +E H +Q. +E E E E E
|---------------------|----------------------|
|---------------------|----------------------|
|---------------------|----------------------|
|---------------------|----------------------|
|-7b9==(9)r==(7)s2----|-(2)---(2)s9-10-9-----|
|---------------------|------------------10--|


~~ ~
Q. E H +E E E E E E E E
|--------------|------------------------|
|--------------|------------------------|
|--------------|------------------------|
|--------------|------------------------|
|-9-------9----|-(9)-10---(2)s9-10p9----|
|------10------|------8--------------10-|


~~ ~ ~
|-3-| |-3-|
Q. E H +E Q E E E E E Q Q Q Q Q Q
|--------------|-------------------|-------0-------|
|--------------|-------------------|---------0-----|
|--------------|-------------------|-----2-----2---|
|--------------|-----9-------------|---0-----------|
|-9-------7----|-(7)-7--7s9-10p9---|---------------|
|------10------|-----------------9-|-1-------------|


~~~ PM PM PM|
+Q. E E E E E E E E E E E E E
|-------------------|-----------------|
|-------------------|-----------------|
|-(2)---------------|---------9-----7-|
|-------------------|---9-----9-----7-|
|-------3s9-10p9----|---7-----7-------|
|----------------10-|-0-----0---0-0---|


PM PM~~~~~~~ PM--| ~~ ~~~
E E E E +E E E E E Q. E E E E
|---------------------|-------------------|
|---------------------|-------------------|
|---------------------|-------------------|
|---9-----------------|-------------------|
|---7---9-(9)h10p9----|---9----10-----[9]-|
|-0---0------------10-|-8-8-----8-8-8-----|


~~~~~ ~~~~~~ ~~~~~~~~~
+E E E E +E E E E E Q. +Q S E.
|--------------------------|------------------|
|--------------------------|------------------|
|--------------------------|------------------|
|--------------------------|------------------|
|-([9])-10---9-(9)-10p9----|-9p7----(7)--9p7--|
|----------8------------10-|------------------|


~~ PM
+Q +E E E E E E E Q. E E E E
|----------------------|------------------|
|----------------------|------------------|
|----------------------|------------------|
|----------------------|------------------|
|-(7)--(7)s2s9-10p9----|---9----10---10---|
|-------------------10-|---8-----8-8--8-8-|


PM PM| PM|
Q. E E E E E E E E E E E E E
|--------------------|-----------------|
|--------------------|-----------------|
|--------------------|---9-----9-----9-|
|--------------------|---9-----9-----9-|
|-10\---/7s9-10-9----|---7-----7-----7-|
|--8\-------------10-|-0---0-0---0-0---|


~~~~~~ PM ~~ PM| ~~~~~~~~
E E E E +E E E E E Q. E E E E +Q Q E E Q
|----------------------|----------------|---------------------||
|----------------------|----------------|---------------------||
|-----9----------------|----------------|---------------------||
|-----9----------------|----------------|---------------------||
|-----7-/9-(9)-10-9----|---9----9-----9-|-(9)--10--10-10------||
|---0---------------10-|-8-8----8-8-8-8-|-(8)---8---8--8-14\--||


PM----------| PM------| PM----------| PM----------|
E E E E E E E E E E E E E E E E E E E E E E E E E E E E E E E E
|-----------------|-----------------|-----------------|-----------------|
|-----------------|---------------3-|---------------3-|---------------5-|
|---------------2-|---2-----------2-|---------------0-|---------------4-|
|---------------3-|---3-----------0-|---------------0-|---------------2-|
|-2-2-2-2-2-2-2-3-|-----------------|---------------2-|-----------------|
|-0-0-0-0-0-0-0-1-|-----1-1-1-1-1-2-|-2-2-2-2-2-2-2---|-3-3-3-3-3-3-3-4-|


PM|
E E E E E E E E +E E E E E E E E
|-----------------|-------------------|
|-----------------|-------------------|
|---------------2-|-(2)-2-----------0-|
|---------------2-|-(2)-2-------------|
|---------------0-|-(0)-0-0-0-0-0-0-1-|
|-4-4-4-4-4-4-4---|-------------------|


+Q. E E E E E +E E E E E E E E H Q E E
|-----------------|-------------------|-------------||
|-----------------|-------4-4-4-4-4-4-|-------------||
|-(0)-----------4-|-(4)-4-4-4-4-4-4-4-|-------------||
|---------------4-|-(4)-4-4-4-4-4-4-4-|-------------||
|-(1)---1-1-----2-|-(2)-2-2-2-2-2-2-2-|-------------||
|-----------0-0---|-------------------|-----------0-||


Out-Chorus
+E E E E E E E E E E E E a E Q E
||------------2-------|---2--------------|
||o-----------3-----2-|---3-2------------|
||--------2---2-----2-|---2-2------------|
||--------2---0-0-0-2-|---0-2---5s7s5----|
||o-------0-0-------0-|-----0---5s7s5----|
||--(0)-0-------------|-------0--------0-|


E E E E E E E E E E E E a E Q E
|---------2-------|---2---------------||
|---------3-----2-|---3-2------------o||
|-----2---2-----2-|---2-2-------------||
|-----2---0-0-0-2-|---0-2---5s7s5-----||
|-----0-0-------0-|-----0---5s7s5----o||
|---0-------------|-------0--------0--||


PM
E E E E E E E E E E E E a E Q E
|-----------------|---2--------------|
|---------3-----2-|---3-2------------|
|-----2---2-----2-|---2-2------------|
|-----2---0-0-0-2-|---0-2---5s7s5----|
|-----0-0-------0-|-----0---5s7s5----|
|-0-0-------------|-------0--------0-|


PM PM
+E E E E E E E E E E E E E Q E W
|------------0--------|---2------------|------*|
|------------3------2-|---3-2----------|------*|
|-------2----2------2-|---2-2---0------|------*|
|-------2----0--0-0-2-|---0-2-----5----|------*|
|-------0-0-(0)-----0-|-----0-----5----|------*|
|-(0)-0---------------|-------0--------|------*|

 
»
Tvoje obľúbené položky
Tvoje obľúbené položky
»
Nové albumy interpreta
Nové albumy interpreta
2xVINYL Van Halen Caracas, venezuela 1983 [vinyl]
2xVINYL Caracas,
venezuela
1983
[vinyl]
VINYL Van Halen Live on air [vinyl]
VINYL Live on
air
[vinyl]
CD Live…'92 Van halen
CD Van halen
CD+DVD Van Halen Hurricane (2cd)
CD+DVD Hurricane
(2cd)
4xCD Van Halen One way to rock
4xCD One way to
rock
CD Van Halen Rock & roll hoochie koo/
CD Rock &
roll
hoochie
koo/
»
Najnovšie videá
Najnovšie videá

Panama Guitar Lesson Pt.2 - Van Halen -

Van Halen - Panama

Van Halen on 2015 Billboard Music Awards

AXE FX II Van Halen Tone Match - Panama

Van Halen - Panama

Van Halen - Panama (live 2015)

»
Najnavštevovanejšie piesne
Najnavštevovanejšie piesne



home | interpreti | register piesní | cd & dvd shop | pripomienky/nápady | kontakt | ochrana údajov | inzercia

TOPlist