Kabát

piesne (538)

  texty (262) / preklady (0)
  akordy (175) / taby (243)
  noty (0) / slideshow (0)

články (317)
fotogaléria
diskusia
videá
diskografia
v obchode
odkazy
koncerty
sťahuj



pridaj vlastný článok

Kabát:
Skupina Kabat na Topfeste! - ... - livemusic.sk


Kabát:
ROCK POD KAMEŇOM PODPORUJE ČESKO-SLOVENSKÚ ROCKOVÚ SCÉNU - Kompletný line-up nabitý svetovými rockermi s výbornou muzikou uzatvárajú zoskupeni... - P.Dráb


Accept:
Report z Metalfest Open Air 2016 v Plzni - Pamatujete na rok 2010, kdy se Metalfest Open Air konal poprvé? Tenkrát byl součást... - rockmag.cz


Kabát:
Kabát prý prodal nejvíce desek, cenu na Andělech ale nevyhraje - Kabát prý prodal nejvíce desek, cenu na Andělech ale nevyhraje Nové desky pro 1... - musicserver.cz


Adele:
Pětadvacátý ročník hudebních cen Anděl zná své výherce - Pětadvacátý ročník hudebních cen Anděl zná své výherce Video: Slza v nové... - musicserver.cz


Kabát:
Kabát tvrdí, že je nespravedlivě vyřazen z boje o nejprodávanější album - Skupina Kabát tvrdí, že byla vyřazena z boje o nejprodávanější album loňského r... - novinky.cz


Kabát:
Kabát vyhlásil bojkot cenám Anděl! Podle rockerů jsou výsledky
zmanipulované!
- Skupina Kabát letošní ceny Anděl bude bojkotovat. Podle ní jsou výsledky zmanipulov... - blesk.cz


Kabát:
Spokojený rocker Pepa Vojtek: Vyvedl těhotnou manželku na nákupy - Šťastný rocker Pepa Vojtek vyvedl těhotnou manželku. Pepa Vojtek s manželkou Jovan... - blesk.cz


Chinaski:
Hudobníci budú na TOPFEST-e skladať rockovú maturitu. V porote sú aj Zuzana
Smatanová, či Polemic!
- Published by MUSIC ZONE on 24. marca 2016 | Komentáre vypnuté na Hudobníci budú na TO... - music-zone.eu


Kabát:
Na 13-tom ročníku festivalu TOPFEST to roztočia kapely Kabát, Puddle of Mudd
a UK Subs!
- ... - livemusic.sk


 

Kabát

Fanúšikov: 181



A B C Č D E F G H CH I J K L Ľ M N O P Q R S Š T U V W X Y Z Ž



ako:
Kabát - Úsměvy pana Loyda
Kabát - Úsměvy pana Loyda



tlač

edituj
Pesničku videlo 5567 návštevníkov.

Kvalita tabov :
Hodnotilo ľudí: 2 ohodnoť aj ty
Prispievateľ:

Black
  *** Autor textu: Black *** Autor hudby: Kabát
úvod:
E// ---------------------------- 4x
B// ----------------------------
G// ----------------------------
D// ----------------------------
A// ----------------------------
E// ---5-7--5-7--5-7--7-5-7-8-7-

sloka stejně ale tlumeně 4x, poté normálně 3x

pre refrén:

E// ----------------------------
B// ----------------------------
G// ----------------------------
D// ------------------7---------
A// ------------------7---------
E// ---5-7--5-7--5-7--5---------

Refrén:
E// ------------------------------------------------------------------------
B// ------------------------------------------------------------------------
G// ---9-9--9---5-5--5-----------7-7--7---2-2--2------------5-5--5---7-7--7-
D// ---9-9--9---5-5--5---5-5--5--7-7--7---2-2--2---2-2--2---5-5--5---7-7--7-
A// ---7-7--7---3-3--3---5-5--5--5-5--5---0-0--0---2-2--2---3-3--3---5-5--5-
E// ---------------------3-3--3--------------------0-0--0-------------------

následuje Intro 3x

pre Refrén

Refrén 2x

vyhrávka na konci refrénu

E// ---------------------------- oposlouchejte kolikrát se hraje
B// ----------------------------
G// ----------------------------
D// --17-14-14-17-14-14-17-14---
A// ----------------------------
E// ----------------------------

druhá vyhrávka - kytara 1
E// -------------------------------------------------------------
B// -------------------------------------------------------------
G// -------------------------------------------------------------
D// -------------------------------------------------------------
A// -------------------------------------------------------------
E// --0--2-2-0-2--0-2--2-0-2-3-2-0--0--2-2-0-2--0-2--2-0-2-3-2-0-

druhá vyhrávka - kytara 2 se přidává
E// -------------------------------------------------------------
B// -------------------------------------------------------------
G// -------------------------------------------------------------
D// --2--4-4-2-4--2-4--4-2-4-5-4-2--2--4-4-2-4--2-4--4-2-4-5-4-2-
A// -------------------------------------------------------------
E// -------------------------------------------------------------

třetí vyhrávka (sólo)
E// --------------------------- 4x
B// ---------------------------
G// --2-4--2-4--2-4--4-2-4-5-4-
D// ---------------------------
A// ---------------------------
E// ---------------------------

Refrén 4x

Vyhrávka na konci refrénu

závěr

E// ------------------
B// ------------------
G// ------------------
D// ------------------
A// ------------------
E// ---5-7--5-7--5-7--


 
»
Tvoje obľúbené položky
Tvoje obľúbené položky
»
Nové albumy interpreta
Nové albumy interpreta
4xDVD Kabat 2013-2015 live vypich 2014 + o2 arena [3dvd+cd]
4xDVD 2013-2015 live
vypich 2014 + o2
arena [3dvd+cd]
4xCD Kabat Original albums 4cd vol.1 [mjm,dttz,colorado,zpt]
4xCD Original albums
4cd vol.1
[mjm,dttz,colora
do,zpt]
3xVINYL Kabat Suma sumarum [vinyl]
3xVINYL Suma sumarum
[vinyl]
CD Kabát Do pekla do nebe
CD Do pekla do nebe
3xCD+DVD Kabat Suma sumarum 2013 remastered
3xCD+DVD Suma sumarum
2013 remastered
2xCD Kabat Banditi di praga turne 2011
2xCD Banditi di praga
turne 2011

»
Najnovšie videá
Najnovšie videá

Kabt - smv pana Loyda ( Vypich )

Kabt - smv Pana Loyda (Turn Corrida

05 Kabt smv pana Loyda

Kabt - smv pana Loyda + nstup vypich

Kabt - smv Pana Loyda (DVD Vypich 200

Kabt - smv Pana Lloyda (Text)
»
Najnavštevovanejšie piesne
Najnavštevovanejšie piesne
Malá dáma - akordy a text

Houby magický - akordy a text

Pohoda - akordy a text

Western Boogie - akordy

Kdoví jestli - akordy a text

Burlaci - akordy a text

Corrida - akordy a text

Malá Dáma ver.2 - akordy a text

Brousíme nože - akordy a text

Schody - akordy a text

Colorado - akordy a text

Bára... Konečně celá a správně!!! (Kraviny opraveny ;-)) - akordy a text

Bára - akordy a text

Šaman - akordy a text

Na sever - akordy a text

Burlaci - akordy a text

Banditi di Praga - akordy a text

Moderní devče - akordy a text

Burlaci - akordy a text

V pekle sudy válej - uplny text - akordy a text

viac




home | interpreti | register piesní | cd & dvd shop | pripomienky/nápady | kontakt | ochrana údajov | inzercia

TOPlist