Ludwig Beethoven

piesne (11)

  texty (1) / preklady (1)
  akordy (1) / taby (6)
  noty (0) / slideshow (0)

články (5)
fotogaléria
diskusia
videá
diskografia
v obchode
odkazy
koncerty
sťahuj



pridaj vlastný článok

Ludwig Beethoven:
Čaro starých klávesov - Čaro starých klávesov Klavicho rd, kladivkový klavír, harmónium či kópie Li... - sme.sk


Ludwig Beethoven:
Zomrel nemecký dirigent a pianista Wolfgang Sawallisch - Zomrel nemecký dirigent a pianista Wolfgang Sawallisch Jeden z popredných nemeck... - sme.sk


Ludwig Beethoven:
V Nitre začne festival duchovnej hudby Musica Sacra - V Nitre sa v nedeľu začne festival duchovnej hudby Musica Sacra Nitra 4. júna (...


Ludwig Beethoven:
Pred 180 rokmi prišiel svet o Ludwiga van Beethovena 24.03.2007 - Bleskovky - Kultura


Ludwig Beethoven:
V kňazskom seminári objavili stratenú partitúru diela van Beethovena - musicserver.sk


Ludwig Beethoven:
Beethoven ke stažení - suewebik.net


Ludwig Beethoven:
Referát: LUDWIG VAN BEETHOVEN - atlas.sk


 

Ludwig Beethoven

Fanúšikov: 0



A B C Č D E F G H CH I J K L Ľ M N O P Q R S Š T U V W X Y Z Ž



ako:
Ludwig Beethoven - Fur Elise - těžší
Ludwig Beethoven - Fur Elise - těžší



tlač

edituj
Pesničku videlo 5362 návštevníkov.

Kvalita tabov : bez hodnotenia
Hodnotilo ľudí: 0 ohodnoť aj ty
Prispievateľ:

Vendy
                                                                          
E||------0---|--0---0-------|--------------|--------------|----------0---|
B||--------4-|----4---0-3-1-|--------------|--0---------0-|--1---------4-|
G||----------|--------------|--2---2-----2-|------1---1---|------2-------|
D||----------|--------------|----2-----2---|----2---2-----|----2---2-----|
A||----------|--------------|--0-----3-----|--------------|--0-----------|
E||----------|--------------|--------------|--0-----------|--------------|



--0---0-------|--------------|--------------|---------0---|--0---0-------|
----4---0-3-1-|--------------|--0-------1-0-|-----------4-|----4---0-3-1-|
--------------|--2---2-----2-|------1-------|--2---2------|--------------|
--------------|----2-----2---|----2---2-----|----2--------|--------------|
--------------|--0-----3-----|--------------|--0----------|--------------|
--------------|--------------|--0-----------|-------------|--------------|



--------------|--------------|----------0---|--0---0-------|--------------|
--------------|--0---------0-|--1---------4-|----4---0-3-1-|--------------|
--2---2-----2-|------1---1---|------2-------|--------------|--2---2-----2-|
----2-----2---|----2---2-----|----2---2-----|--------------|----2-----2---|
--0-----3-----|--------------|--0-----------|--------------|--0-----3-----|
--------------|--0-----------|--------------|--------------|--------------|



--------------|--------------|--0-------1-0-|----------0---|--------------|
--0-------1-0-|--------0-1-3-|------1-------|--3---0-----3-|--1-------3-1-|
------1-------|--2---2-------|--------0-----|----0---------|------2-------|
----2---0-----|----2---------|----2---------|--------3-----|----2---2-----|
--------------|--0-----------|--3-----------|--------------|--0-----------|
--0-----------|--------------|--------------|--3-----------|--------------|



------0---0---|--0---12---0---|--0---0---0---|--0---0-------|--------------|
--0-----------|---------4---4-|----4---4---4-|----4---0-3-1-|--------------|
--------------|----9----------|--------------|--------------|--2---2-----2-|
----2---2---2-|---------------|--------------|--------------|----2-----2---|
--------------|---------------|--------------|--------------|--0-----3-----|
--0-----------|---------------|--------------|--------------|--------------|



--------------|----------0---|--0---0-------|--------------|--------------|
--0---------0-|--1---------4-|----4---0-3-1-|--------------|--0-------1-0-|
------1---1---|------2-------|--------------|--2---2-----2-|------1-------|
----2---2-----|----2---2-----|--------------|----2-----2---|----2---0-----|
--------------|--0-----------|--------------|--0-----3-----|--------------|
--0-----------|--------------|--------------|--------------|--0-----------|



--------------|--0-------1-0-|----------0---|--------------|------0---0---|
--------0-1-3-|------1-------|--3---0-----3-|--1-------3-1-|--0-----------|
--2---2-------|--------0-----|----0---------|------2-------|--------------|
----2---------|----2---------|--------3-----|----2---2-----|----2---2---2-|
--0-----------|--3-----------|--------------|--0-----------|--------------|
--------------|--------------|--3-----------|--------------|--0-----------|



--0---12---0---|--0---0---0---|--0---0-------|--------------|--------------|
---------4---4-|----4---4---4-|----4---0-3-1-|--------------|--0---------0-|
---------------|--------------|--------------|--2---2-----2-|------1---1---|
---------------|--------------|--------------|----2-----2---|----2---2-----|
---------------|--------------|--------------|--0-----3-----|--------------|
----0----------|--------------|--------------|--------------|--0-----------|



----------0---|--0---0-------|--------------|--------------|--------------|
--1---------4-|----4---0-3-1-|--------------|--0-------1-0-|--------1-1-1-|
------2-------|--------------|--2---2-----2-|------1-------|--2---2-----3-|
----2---2-----|--------------|----2-----2---|----2---0-----|----2---2-3-2-|
--0-----------|--------------|--0-----3-----|--------------|--0-----1-0---|
--------------|--------------|--------------|--0-----------|------------3-|



----------1---0-|----------6---5-|--5/3-1-0-----|------------------|
--1-------1-----|--5---3---3-----|----------3-1-|------------------|
--2-2---2---2---|----3---3---3---|--------------|--3---2---2-0-2-3-|
------3---------|--3-------------|--3/2-0-2-3-2-|--3---------------|
----------------|----------------|--------------|----3-3h0---------|
--1-------------|----------------|--------------|------------------|



--------------|--0-----0-1---|----------------|----3---3---3---3---3---3-|
--1-------3-4-|------1-------|--1-------3---0-|--1-----------0---1---3---|
--2-2---2-----|----2---2---2-|----------------|------0---2---------------|
--3---3-------|--2-------0-3-|----2---3---3---|--------------3---2---0---|
--------------|--------------|----------------|--3-----------------------|
--------------|--------------|--3---3---3-----|--------------------------|



--0-3-8h7-5h3-1-0---3-1---|----3---3---3---3---3---3-|
------------------3-----3-|--1-----------0---1---3---|
------------------0-------|------0---2---------------|
----------3---------------|--------------3---2---0---|
--3/--7-------------------|--3-----------------------|
--------------------------|--------------------------|



--0-3-8h7-5h3-1-0---3-1---|--0-1-0---0---0---0---0---|--0-----0---|--0-----0---|
------------------3-----3-|--------4---0---4---0---4-|------0---4-|------0---4-|
------------------0-------|--1-----------------------|------------|------------|
----------3---------------|--------------------------|------------|------------|
--3/--7-------------------|--------------------------|------------|------------|
--------------------------|--------------------------|------------|------------|



--0---0---0---|--0---0-------|--------------|--------------|----------0---|
----4---4---4-|----4---0-3-1-|--------------|--0---------0-|--1---------4-|
--------------|--------------|--2---2-----2-|------1---1---|------2-------|
--------------|--------------|----2-----2---|----2---2-----|----2---2-----|
--------------|--------------|--0-----3-----|--------------|--0-----------|
--------------|--------------|--------------|--0-----------|--------------|



--0---0-------|--------------|--------------|--------------|--0-------1-0-|
----4---0-3-1-|--------------|--0-------1-0-|--------0-1-3-|------1-------|
--------------|--2---2-----2-|------1-------|--2---2-------|--------0-----|
--------------|----2-----2---|----2---0-----|----2---------|----2---------|
--------------|--0-----3-----|--------------|--0-----------|--3-----------|
--------------|--------------|--0-----------|--------------|--------------|



----------0---|--------------|------0---0---|--0---12---0---|--0---0---0---|
--3---0-----3-|--1-------3-1-|--0-----------|---------4---4-|----4---4---4-|
----0---------|------2-------|--------------|---------------|--------------|
--------3-----|----2---2-----|----2---2---2-|---------------|--------------|
--------------|--0-----------|--------------|---------------|--------------|
--3-----------|--------------|--0-----------|----0----------|--------------|



--0---0-------|--------------|--------------|----------0---|--0---0-------|
----4---0-3-1-|--------------|--0---------0-|--1---------4-|----4---0-3-1-|
--------------|--2---2-----2-|------1---1---|------2-------|--------------|
--------------|----2-----2---|----2---2-----|----2---2-----|--------------|
--------------|--0-----3-----|--------------|--0-----------|--------------|
--------------|--------------|--0-----------|--------------|--------------|



--------------|--------------|--------------|--------------|----------0-1-|
--------------|--0-------1-0-|--------------|--2-----------|--3-------2-3-|
--2---2-----2-|------1-------|--2-----------|--3-----------|--2-----------|
----2-----2---|----2---0-----|--------------|--5-----------|--3-----------|
--0-----3-----|--------------|--0-0-0-0-0-0-|--0-0-0-0-0-0-|--0-0-0-0-0-0-|
--------------|--0-----------|--------------|--------------|--------------|



--1-------1---|--0-----------|-----------|----------|--------------|
--3-------3---|--1-----------|--3----1-0-|----------|------1---0---|
--1-------1---|--2-----------|-----------|--2----2--|--2-------1---|
--------------|--------------|--3----2-0-|--4-------|------2-------|
--0-0-0-0-0-0-|--0-0-0-0-0-0-|--0--------|--3----3--|--3-----------|
--------------|--------------|-----------|--5-------|--0-0-0-0-0-0-|



--------------|--------------|----------0-1-|--1-------1---|--1-----------|
--------------|--2-----------|--3-------2-3-|--3-------3---|--3-----------|
--2-----------|--3-----------|--2-----------|--------------|--------------|
--------------|--5-----------|--3-----------|--------------|--------------|
--3h0-0-0-0-0-|--0-0-0-0-0-0-|--0-0-0-0-0-0-|--0-0-0-0-0-0-|--1-1-1-1-1-1-|
--------------|--------------|--------------|--------------|--------------|



--------------|--------------|--------------|---------|---------|
--4-------3-1-|--------------|--------------|---------|--0------|
--0-----------|--3-------2---|--1-------1---|--2------|--1------|
----------3---|--0-------3---|--3-------3---|--2------|--2------|
--1-1-1-1-1-1-|--1-1-1-1-1-1-|--2-2-2-2-2-2-|--3------|---------|
--------------|--------------|--------------|---------|--0------|



------------0-------|------0----8-12-10h8----|------0----8-12-10h8----|
----------1---3h1-0-|----1---10-----------12-|----1---10-----------12-|
--------2-----------|--2---------------------|--2---------------------|
------2-------------|------------------------|------------------------|
--0h3---------0-----|--0-------------0-------|--0-------------0-------|
--------------------|------------------------|------------------------|



------------------------|--------------------|------0-------|--------------|
--11-10-9-8-----------3-|--2-1-0-------------|----4---0-3-1-|--------------|
------------11-10-9-8---|--------3-2-1-0-----|--------------|--2---2-----2-|
------------------------|----------------4-3-|--2-----------|----2-----2---|
--0---------------------|--------------------|--------------|--0-----3-----|
------------------------|--------------------|--------------|--------------|



--------------|----------0---|--0---0-------|--------------|--------------|
--0---------0-|--1---------4-|----4---0-3-1-|--------------|--0-------1-0-|
------1---1---|------2-------|--------------|--2---2-----2-|------1-------|
----2---2-----|----2---2-----|--------------|----2-----2---|----2---0-----|
--------------|--0-----------|--------------|--0-----3-----|--------------|
--0-----------|--------------|--------------|--------------|--0-----------|



--------------|--0-------1-0-|----------0---|--------------|------0---0---|
--------0-1-3-|------1-------|--3---0-----3-|--1-------3-1-|--0-----------|
--2---2-------|--------0-----|----0---------|------2-------|--------------|
----2---------|----2---------|--------3-----|----2---2-----|----2---2---2-|
--0-----------|--3-----------|--------------|--0-----------|--------------|
--------------|--------------|--3-----------|--------------|--0-----------|



--0---12---0---|--0---0---0---|--0---0-------|--------------|--------------|
---------4---4-|----4---4---4-|----4---0-3-1-|--------------|--0---------0-|
----9----------|--------------|--------------|--2---2-----2-|------1---1---|
---------------|--------------|--------------|----2-----2---|----2---2-----|
---------------|--------------|--------------|--0-----3-----|--------------|
---------------|--------------|--------------|--------------|--0-----------|



----------0---|--0---0-------|--------------|--------------|---------||
--1---------4-|----4---0-3-1-|--------------|--0-------1-0-|---------||
------2-------|--------------|--2---2-----2-|------1-------|--2------||
----2---2-----|--------------|----2-----2---|----2---0-----|---------||
--0-----------|--------------|--0-----3-----|--------------|--0------||
--------------|--------------|--------------|--0-----------|---------||

 
»
Tvoje obľúbené položky
Tvoje obľúbené položky
»
Nové albumy interpreta
Nové albumy interpreta
7xCD Beethoven Ludwig Van Complete string quartets/ltd
7xCD Complete string
quartets/ltd
CD Kempe Rudolf/muenchner Philharmoniker Red line - symphonies nos. 1 & 3 beethoven
CD Red line -
symphonies nos.
1 & 3 beethoven
10xCD Beethoven L. Van Complete piano.. -ltd-
10xCD Complete piano..
-ltd-
9xCD Du Pre Jacqueline Beethoven piano trios violin and cello sonatas
9xCD Beethoven piano
trios violin and
cello sonatas
CD Mackerras Charles Sinfonie 9
CD Sinfonie 9
CD Chorzempa Daniel Klaviersonaten 8,14,23
CD Klaviersonaten
8,14,23

»
Najnovšie videá
Najnovšie videá

Ludwig Van Beethoven - Fr Elise

Fur Elise - Ludwig van Beethoven [Piano

Fr Elise(Elise) By Ludwig Van Beethoven

Beethoven Fur Elise - Full Piano Version

Ludwig van Beethoven: Fr Elise

fur elise (Ludwig van Beethoven)
»
Najnavštevovanejšie piesne
Najnavštevovanejšie piesne



home | interpreti | register piesní | cd & dvd shop | pripomienky/nápady | kontakt | ochrana údajov | inzercia

TOPlist