Polemic

piesne (107)

  texty (76) / preklady (13)
  akordy (51) / taby (5)
  noty (0) / slideshow (0)

články (383)
fotogaléria
diskusia
videá
diskografia
v obchode
odkazy
koncerty
sťahuj



pridaj vlastný článok

Polemic:
Na Polemic tancujú maminy, pankáči aj mladé slečny - Autor: Natália Skovayová Ska & Reggae unnamed Po júnovom predstavení skladby Tan... - musicpress.sk


Polemic:
Polemic má nový klip k pesničke „Tancuj“, hlavnými hviezdami v ňom sú
bežní ľudia, fanúšikovia kapely!
- 26. septembra 2016 MUSIC ZONE 0 Comments Kapela Polemic má nový videoklip singlu... - music-zone.eu


Polemic:
Skupina Polemic finišuje s novým klipom k pesničke „Tancuj“! - ... - livemusic.sk


Celeste Buckingham:
ONLINE: Neseďte pri bedni a príďte, vyzvali ľudí slovenskí speváci - ONLINE - Veľký benefičný koncert Hudba bez bariér 14. apríla v bratislavskej Incheb... - atlas.sk


Polemic:
Polemic o lete, Ivanovi Kandráčovi i Katke Knechtovej - ... - frenky.sk


Polemic:
Polemic pripravil špeciálny vianočný koncert s Robom Grigorovom! - ... - livemusic.sk


Polemic:
Spojenie Polemic, Banášová, Kandráč - ... - hux.sk


Polemic:
Čo spojilo POLEMIC, Adelu Banášovú a Ivana Kandráča? - Takto ste POLEMIC ešte nevideli! To, že skupine POLEMIC zmysel pre humor nechýba, n... - Soul For Show


Polemic:
Polemic vystoupí v úterý v Lucerna Music Baru - Polemic vystoupí v úterý v Lucerna Music Baru Vydáno: 11.11.2014 09:38 v sekci Ti... - musicserver.cz


Billy Barman:
Polemic, Billy Barman a ďalší už zajtra na študentskom festivale Back To
School
- Polemic, Billy Barman a ďalší už zajtra na študentskom festivale Back To School ... - ahudba.sk


 

Polemic

Fanúšikov: 63



A B C Č D E F G H CH I J K L Ľ M N O P Q R S Š T U V W X Y Z Ž



ako:
Polemic - Komplikovana (intro)
Polemic - Komplikovana (intro)



tlač

edituj
Pesničku videlo 6055 návštevníkov.

Kvalita tabov :
Hodnotilo ľudí: 1 ohodnoť aj ty
Prispievateľ:

neppo
E|------------------------------
B|--6--5--6-------8--6--8--5----
G|-----------7------------------
D|------------------------------
A|------------------------------
E|------------------------------



E|-----------------8----------------
B|--10--8--10--10-----10--8--10--6--
G|----------------------------------
D|----------------------------------
A|----------------------------------
E|----------------------------------



E|-------------------------------------8h10--12--13--12--13--12--10--
B|--6--5--6-------8--6--8--10--10--10--------------------------------
G|-----------7-------------------------------------------------------
D|-------------------------------------------------------------------
A|-------------------------------------------------------------------
E|-------------------------------------------------------------------


E|------------------------------
B|--6--5--6-------8--6--8--5----
G|-----------7------------------
D|------------------------------
A|------------------------------
E|------------------------------



E|-----------------8----------------
B|--10--8--10--10-----10--8--10--6--
G|----------------------------------
D|----------------------------------
A|----------------------------------
E|----------------------------------



E|--------------------------------13\\
B|--6--5--6-----8--6--8--10--6--------
G|-----------7------------------------
D|------------------------------------
A|------------------------------------
E|------------------------------------

 
»
Tvoje obľúbené položky
Tvoje obľúbené položky
»
Nové albumy interpreta
Nové albumy interpreta
CD Polemic Hey! ba-ba-re-bop
CD Hey!
ba-ba-re-bop
CD Polemic Horuce casy
CD Horuce casy
KAZETA Polemic Nelam si s tym hlavu
KAZETA Nelam si s tym
hlavu
CD Polemic Do ska
CD Do ska
CD Polemic Yahman!
CD Yahman!

»
Najnovšie videá
Najnovšie videá

Polemic - Komplikovana

Polemic - Komplikovan

Ivan Kandrac - Komplikovana (Polemic)

Polemic - Komplikovan v Hemendex Live

Polemic- Ona je taka

Polemic - Komplikovan (DJ Tailshaker ka
»
Najnavštevovanejšie piesne
Najnavštevovanejšie piesne
Komplikovaná - akordy a text

Ona je taká - akordy a text

SPOLU - akordy a text

do SKA - akordy a text

Ja som to vedel - akordy a text

Škandál - akordy a text

Blázni - akordy a text

Ako to prežijem 100% - text

Komplikovná - text

Spolu - akordy a text

Baba-ryba - akordy a text

Ako to prežijem? - akordy

Gangster-SKA - akordy a text

Yes You´re Right - akordy a text

Komplikovaná - Zložitá - preklad

Horúce časy - text

Svetlá mesta - text

Komplikovana (intro) - taby

Skank - akordy a text

Slnko v sieti - akordy a text

viac




home | interpreti | register piesní | cd & dvd shop | pripomienky/nápady | kontakt | ochrana údajov | inzercia

TOPlist