Velvet Underground

piesne (42)

  texty (26) / preklady (4)
  akordy (22) / taby (11)
  noty (0) / slideshow (0)

články (6)
fotogaléria
diskusia
videá
diskografia
v obchode
odkazy
koncerty
sťahuj



pridaj vlastný článok

Velvet Underground:
Vyjde špeciálna reedícia albumu Loaded od The Velvet Underground - Fanúšikovia a fanúšičky už nefungujúcej americkej kapely The Velvet Underground sa...


Allman Brothers Band:
Magazín Rolling Stone vydal zoznam najprelomovejších albumov - Americký magazín Rolling Stone zverejnil zoznam 40 najprelomovejších hudobných album...


Pizza Underground:
Keď nejde len o hudbu - Keď nejde len o hudbu Aby sa koncert vydaril, musí sa stať niekoľko základný... - sme.sk


Pizza Underground:
Chlapec zo Sám doma mal radšej ostať doma: Macaulaya Culkina a jeho kapelu
vypískali!
- Chlapec zo Sám doma mal radšej ostať doma: Macaulaya Culkina a jeho kapelu vypískali!... - cas.sk


Med:
Počas Lou Reed Tribute vystúpia aj Shooty a Sandra Tordová - Počas očakávaného podujatia s názvom Lou Reed Tribute, ktoré sa bude konať 1. febr...


Lou Reed:
Lou Reed zomrel pri cvičení tai-či, uviedla jeho manželka - Manželka zosnulého amerického hudobníka Loua Reeda Laurie Anderson zverejnila v týž...


Velvet Underground:
Vydajú nezverejnené verzie piesní The Velvet Underground - Na očakávanej reedícii albumu White Light/White Heat, ktorý v roku 1968 vydala už ne...


Brian Jonestown Massacre:
The Brian Jonestown Massacre, alebo ako rozpútať hudobnú revolúciu - Píše sa rok 1990 a človek, značne ovplyvnený Brianom Jonesom a presvedčený, že b...


Brian Jonestown Massacre:
The Brian Jonestown Massacre, alebo ako rozpútať hudobnú revolúciu - Píše sa rok 1990 a človek, značne ovplyvnený Brianom Jonesom a presvedčený, že b...


John Cale:
Trutnov navštívilo nejvíce lidí za poslední 4 roky - Festival Trutnov navštívilo nejvíce lidí za poslední čtyři roky. Opět se vyznačo... - Geronimo Agency


 

Velvet Underground

Fanúšikov: 5



A B C Č D E F G H CH I J K L Ľ M N O P Q R S Š T U V W X Y Z Ž



ako:
Velvet Underground - Pale Blue Eyes
Velvet Underground - Pale Blue Eyes

tlač

edituj
Pesničku videlo 2448 návštevníkov.

Kvalita tabov : bez hodnotenia
Hodnotilo ľudí: 0 ohodnoť aj ty
Prispievateľ:

vendee
  *** Autor textu: Lou Reed *** Autor hudby: Lou Reed

intro
{G} {G}
E------7---7----7---5-------7---7----7---5--
H-------------------------------------------
G--5/7---7----7---5-----5/7---7----7---5----


verze-chorus
Sometimes I feel so happy
{G} {G}
E------7---7----7---5-------7---7----7------
H-------------------------------------------
G--5/7---7----7---5-----5/7---7----7---7-0—

sometimes I feel so sad
{C} {G}
------8------8-----------------7---7----7---5--
--------8h10----8h10-8---8---------------------
--7/9------------------9-----7---7----7---5----
Sometimes I feel so happy
{G} {Em}
------7---7----7-------------------------------
-------------------------------12--------------
--5/7---7----7---7-0---11b12-x----(11b)12------

but mostly you just make me mad
{Am / C} {G}
----5----------8-8h10-8-----7---7----7------
--------------------------------------------
--5---5----8/9------------7---7----7---7-0--
--------5-----------------------------------


Baby, you just make me mad
{C / D} {G}
------8--------------10--------------7---7----7---5--
--------8h10-8----------10h12-10---------------------
--8/9-----------9/11---------------7---7----7---5----

Linger -
{G}
------7---7----7------
----------------------
--5/7---7----7---7-0--

- on your pale blue -
{D} {D}
-------10-------10-------------10-------10----12-10-----------
----------10h12----10h12-10-------10-------10-------10h12-10--
--9/11----------------------11-------11-----------------------

- eyes Linger -
{G} {G}
----7---7----7---5-------7---7----7------
-----------------------------------------
--7---7----7---5-----5/7---7----7---7-0--

- on your pale blue -
{D} {D}
-------10-------10-------------10-------10----12-10-----------
----------10h12----10h12-10-------10-------10-------10h12-10--
--9/11----------------------11-------11-----------------------

- eyes
{G} {G}
----7---7----7---5-------7---7----7---5--
-----------------------------------------
--7---7----7---5-----5/7---7----7---5----

* guitar solo
{G} {G}
E-------15----------------------------------------
H--x-15----18v---15-----15v-----------------------
G-------------------17--15v-----------------------
D-----------------------------17--15h17-17-15-17--

{C} {G}
---------------------------------------------------------------
--x-17v---17-15---------------15v------------------------------
--x-17v---17-15------------15v---15v-------------------15v-----
----------------17-15-17-------------17v---------15h17-----17--
-------------------------------------------15h17---------------

{G} {Em}
--x-15---------------------x-12--------------------------
-------15-----------------------12-----------------------
----------17b19---17-15v------------14b16---16r14-12-----
-----------------------------------------------------14--

{Am / C} {G}
--------------------------------------------------------------------
-----------------13b15r13--12h13p12---------------------------------
--14---12h14-12-----------------------12---12\10----10h12-12-10-10--
-------------------------------------------------12-----------------

{C / D} {G}
-----8-----8------10----10-----7---7----7---5--
---------------------10------------------------
-------8h9-------------------7---7----7---5----
--10----------/12------------------------------

{G}
------7---7----7------
----------------------
--5/7---7----7---7-0--

{D} {D}
-------10-x-------14-------12---------10-------14-12-----------
-----------------------------------------------------10h12-10--
--9/11------11/14----14--12--12---9/11-----11------------------

{G} {G}
----7---7----7---5-------7---7----7------
-----------------------------------------
--7---7----7---5-----5/7---7----7---7-0--

{D} {D}
-------10-x-------14-------12---------10--------14-12-----------
-----------------------------------------10-----------10h12-10--
--9/11------11/14----14--12--12---9/11------11------------------

{G} {G}
----7---7----7---5-------7---7----7---5--
-----------------------------------------
--7---7----7---5-----5/7---7----7---5----


 
»
Tvoje obľúbené položky
Tvoje obľúbené položky
»
Nové albumy interpreta
Nové albumy interpreta
Chyba - Databaza nie je dostupna.


»
Najnovšie videá
Najnovšie videá

Pale blue eyes - Velvet Underground - Ly

Velvet Underground-"Pa le Blue Eyes" fro

Pale Blue Eyes - The Velvet Underground

The Velvet Underground - Pale Blue Eyes

Pale Blue Eyes (Lou Reed - The Velvet Un

VELVET UNDERGROUND - PALE BLUE EYES (Ojo

»
Najnavštevovanejšie piesne
Najnavštevovanejšie piesne
Venus In Furs - akordy a text

Sunday Morning - akordy a text

Pale Blue Eyes - preklad

Femme Fatale - preklad

Sunday Morning - akordy a text

All tomorrows parties - akordy a text

After Hours - akordy a text

Pale Blue Eyes - akordy a text

Run Run Run - akordy a text

I\'ll Be Your Mirror - akordy a text

Femme Fatale - akordy a text

Beginning To See The Light - akordy a text

What Goes On - akordy a text

All Tomorrow\'s Parties - Spravne - akordy a text

Can\'t Stand It Anymore - akordy a text

Sweet Jane - akordy a text

I\'m Waiting For The Man - akordy a text

Heroin - akordy a text

Can´t Stand It Anymore - preklad

The Gift - text

viac




home | interpreti | register piesní | cd & dvd shop | pripomienky/nápady | kontakt | ochrana údajov | inzercia

TOPlist