Alice Cooper

piesne (536)

  texty (371) / preklady (19)
  akordy (27) / taby (138)
  noty (0) / slideshow (0)

články (49)
fotogaléria
diskusia
videá
diskografia
v obchode
odkazy
koncerty
sťahuj



pridaj vlastný článok

Alice Cooper:
Alice Cooper pôjde do dôchodku, keď ľudia prestanú chodiť na jeho koncerty - včera o 08:00 | redakcia Americký spevák Alice Cooper pôjde do dôchodku až keď ... - zoznam.sk


Michael Bruce:
Kytarista Alice Coopera, Michael Bruce, vydává svou doplněnou biografii - Fanoušci Alice Coopera mají dnes důvod k radosti. Biografie kytaristy, klávesisty a h... - spark-rockmagazine.cz


Alice Cooper:
Alice Cooper – Vítejte v mé noční můře (i když tu - 19 Únor 2018 Šárka Blahoňovská Žádné komentáře Novinky [Rock&Pop 02/18] A... - rockandpop.cz


Alice Cooper:
Ozzy Osbourne přijede do Prahy s Hollywood Vampires (Johnny Depp, Alice Cooper,
Joe Perry)
- 6 Listopad 2017 David Nguyen Žádné komentáře Novinky Ozzy Osbourne přijede do... - rockandpop.cz


Alice Cooper:
Alice Cooper opět spolupracuje se starou sestavou - 25 Květen 2017 David Nguyen Žádné komentáře Novinky Alice Cooper opět spolup... - rockandpop.cz


Alice Cooper:
Alice Cooper spája kapelu pre nový album - Alice Cooper by chcel znova so svojou pôvodnou kapelou nahrávať. Bude to spoločne po ... - zst


Aerosmith:
Recenze: Superkapela Johnnyho Deppa překvapuje nadsázkou i dobrou muzikou - před 24 hodinami The Hollywood Vampires The Hollywood Vampires | Foto: Profimedia.cz ... - aktualne.cz


Alice Cooper:
Alice Cooper nahovorí detskú rozprávku - Alice Cooper sa preslávil vďaka svojim gotickým metalovým piesňam. Teraz prináša s... - zst


Alice Cooper:
Johnny Depp má superskupinu spoločne s Cooperom a Joe Perry - Johnny Depp vytvoril superskupinu spoločne s Alice Cooperom a Joe Perry. Hviezda z filmu... - bang


69 Eyes:
Metalové orgie v Plzni již za týden - Už 30. května začíná víkendový Metalfest Open Air 2014 v Plzni. Kromě Alice Coo... - novinky.cz


 

Alice Cooper

Fanúšikov: 16



A B C Č D E F G H CH I J K L Ľ M N O P Q R S Š T U V W X Y Z Ž



ako:
Alice Cooper - Pain
Alice Cooper - Pain

tlač

edituj
Pesničku videlo 2398 návštevníkov.

Kvalita tabov : bez hodnotenia
Hodnotilo ľudí: 0 ohodnoť aj ty
Prispievateľ:

susane.x

intro (play this 4x)

|------------------------------------------------------------------------------|
|----------------------9---8---------------------------9---8-------------------|
|----------------------8---8---------------------------8---8-------------------|
|------3---1-----6---------------------3---1----6------------------------------|
|------3---1---------------------------3---1-----------------------------------|
|--1--------------------------------1------------------------------------------|
(main rhythm)
|---------------------------------------|
|---------------------------------------|
|-10-x-x-10-x-x---8--10-x-x-10-x-x--8---|
|-10-x-x-10-x-x---8--10-x-x-10-x-x--8---|
|-11-x-x-11-x-x--10--11-x-x-11-x-x-10---|
|---------------------------------------|
Verse w\main rhythm (go pre-chorus)
1."I`m hidden in the scream, when the virgin dies."
"I`m the ache in the belly, when your baby cries. "

2."And I`m the combound fracture in the twisted car,
And I`m lines on the face, of the tramp at the bar."

3. "I`m the holes in your arm, when you`re feeling the shakes."
"I`m the lump on your head, when you step on the rake."

4."I`m the salt in the sweat, on the cuts of the slaves."
"I was the wound in the side, while Jesus prayed."

Pre-chorus (go chorus)
1."And I`m the burnin`sensation, when the convict fries."
2."And I`m the reds by the bed of the suicide star."
3."And I`m the loudest one laughing at the saddest wake."
4."I was the filthiest word at the vandalized grave."
|----------------------------------------------------------------------------------|
|----------------------------------------------------------------------------------|
|-------------10----------8----------5---------6-------8-----8--8--8--8------------|
|-------------10----------8----------5---------6-------8-----8--8--8--8------------|
|-------------11---------10----------6---------8------10----10-10-10-10------------|
|----------------------------------------------------------------------------------|
chorus 1. (guitar two play main rhythm)After this go verse1
"I`m pain, I`m your pain, Unspeakable pain,"
|--------------12b-----7b------------------12b--------------------------15b--------|
|----------------------------------------------------------------------------------|
|----------------------------------------------------------------------------------|
|----------------------------------------------------------------------------------|
|----------------------------------------------------------------------------------|
|----------------------------------------------------------------------------------|
"I`m your private pain"
|----12b-------------------------------12b----------------------------------------|
|---------------------------------------------------------------------------------|
|---------------------------------------------------------------------------------|
|---------------------------------------------------------------------------------|
|---------------------------------------------------------------------------------|
|---------------------------------------------------------------------------------|
chorus 2. (guitar two play main rhythm)After this go verse2
"You know me I`m pain, I`m your pain,"
|------------------------12b---------------------12b-----------------------------|
|--------------------------------------------------------------------------------|
|--------------------------------------------------------------------------------|
|--------------------------------------------------------------------------------|
|--------------------------------------------------------------------------------|
|--------------------------------------------------------------------------------|
" your own private pain, unfathomable."
|-15b---------------------------12b---------------------12b---------------------|
|-------------------------------------------------------------------------------|
|-------------------------------------------------------------------------------|
|-------------------------------------------------------------------------------|
|-------------------------------------------------------------------------------|
|-------------------------------------------------------------------------------|
Rhythm fig. one
"And it`s a compliment to me to hear you screaming
through the night, all night, to night"
(play this after second chorus)
|---------------------------------------------------------------------------------|
|--------------------11-----------------------------------------------------------|
|--------------------10-----------------------------------------------------------|
|---8h10h11--8-------------8h10h11--8--13--13-15-15~~13-13-15-15~~----------------|
|---------------------------------------------------------------------------------|
|---------------------------------------------------------------------------------|
|guitar two
|--------------------------------------------------------------------------------|
|--------------------------------------------------------------------------------|
|-10-x-x-10-x-x----8----10-x-x-10----8----8--10--10---8---8--10-10---------------|
|-10-x-x-10-x-x----8----10-x-x-10----8----8--10--10---8---8--10-10---------------|
|-11-x-x-11-x-x---10----11-x-x-11---10---10--11--11--10--10--11-11---------------|
|--------------------------------------------------------------------------------|

|--------------------------------------------------------------------------------|
|--------------------11----------------------------------------------------------|
|--------------------10----------------------------------------------------------|
|---8h10h11--8------------8h10h11--8--13--15-15~~~-------------------------------|
|--------------------------------------------------------------------------------|
|--------------------------------------------------------------------------------|
|guitar two (after this go verse3)
|--------------------------------------------------------------------------------|
|--------------------------------------------------------------------------------|
|--10-x-x-10------8------10-x-x-10-----8--10-10----------------------------------|
|--10-x-x-10-----10------10-x-x-10-----8--10-10----------------------------------|
|--11-x-x-11-----10------11-x-x-11----10--11-11----------------------------------|
|--------------------------------------------------------------------------------|
Chorus 3. (guitar two play main rhythm)
"Yes I`m pain, I`m just pain, dear old pain,
|-------------------12b------15b-----------------12b-------------------12b---------|
|----------------------------------------------------------------------------------|
|----------------------------------------------------------------------------------|
|----------------------------------------------------------------------------------|
|----------------------------------------------------------------------------------|
|----------------------------------------------------------------------------------|
you need your pain"
|---------------------------12b---12b-12b--11--11~~--------------------------------|
|----------------------------------------------------------------------------------|
|----------------------------------------------------------------------------------|
|----------------------------------------------------------------------------------|
|----------------------------------------------------------------------------------|
|----------------------------------------------------------------------------------|
solo (not sure about this, play this after chorus 3.)
|---------------------------------------------------------------------------------|
|---------------------------------------------------------------------------------|
|---------------------------------------------------------------------------------|
|--18---17--18--15--13--15--10b--rb--10--8--9b--9b--10b--rb--8--------------------|
|---------------------------------------------------------------------------------|
|---------------------------------------------------------------------------------|

|--------------------------------------------------------------------------------|
|--------------------------------------------------------------------------------|
|--------------------------------------------------------------------------------|
|-8--9b--9b----13b-rb--8--9b--9b~------------------------------------------------|
|--------------------------------------------------------------------------------|
|----------------------------------------------(play solo 2x)--------------------|
rhythm fig. two(play this after solo)
"And I`m the loudest one laughing A the saddest wake."
|----------------------------------------------------------------------------|
|----------------------------------------------------------------------------|
|------------------10--------------8-----------5------6--------8-------------|
|------------------10--------------8-----------5------6--------8-------------|
|------------------11-------------10-----------6------8-------10-------------|
|----------------------------------------------------------------------------|
|guitar two
|------------------9~~~-----------11~~~-------13~~----9~~-----11~~-----------|
|----------------------------------------------------------------------------|
|----------------------------------------------------------------------------|
|----------------------------------------------------------------------------|
|----------------------------------------------------------------------------|
|----------------------------------------------------------------------------|

|----------------------------------------------------------------------------|
|----------------------------------------------------------------------------|
|-10--10--10--10--10--10--10--10---------------------------------------------|
|-10--10--10--10--10--10--10--10---------------------------------------------|
|-11--11--11--11--11--11--11--11---------------------------------------------|
|----------------------------------------------------------------------------|
|guitar two (after this go verse 4.)
|-12b--11---11--12b--12b--11-11-15b~~----------------------------------------|
|----------------------------------------------------------------------------|
|----------------------------------------------------------------------------|
|----------------------------------------------------------------------------|
|----------------------------------------------------------------------------|
|----------------------------------------------------------------------------|
Chorus 4. (guitar two play main rhythm)
"Yes I`m pain, do you love me pain,
|-------------------12b------------------------------12b---------------------|
|----------------------------------------------------------------------------|
|----------------------------------------------------------------------------|
|----------------------------------------------------------------------------|
|----------------------------------------------------------------------------|
|----------------------------------------------------------------------------|
I love my pain, I`m your pain"
|-15b----------------------12b-------------------------12b-------------------|
|----------------------------------------------------------------------------|
|----------------------------------------------------------------------------|
|----------------------------------------------------------------------------|
|----------------------------------------------------------------------------|
|----------------------------------------------------------------------------|

|-12b--12b--11--11~~---\-----------------------------------------------------|
|----------------------------------------------------------------------------|
|----------------------------------------------------------------------------|
|----------------------------------------------------------------------------|
|----------------------------------------------------------------------------|
|----------------------------------------------------------------------------|


 
»
Tvoje obľúbené položky
Tvoje obľúbené položky
»
Nové albumy interpreta
Nové albumy interpreta
VINYL Cooper Alice Last temptation -coloured [vinyl]
VINYL Last
temptation
-coloured
[vinyl]
VINYL Alice Cooper The sound of a [vinyl]
VINYL The sound
of a
[vinyl]
CM Cooper Alice Sound of a
CM Sound of a
2xCD+DVD Cooper Alice Brutally live -dvd+cd-
2xCD+DVD Brutally
live
-dvd+cd-
VINYL Cooper Alice Welcome to my nightmare [vinyl]
VINYL Welcome to
my
nightmare
[vinyl]
VINYL Cooper Alice Killer [vinyl]
VINYL Killer
[vinyl]
»
Najnovšie videá
Najnovšie videá

Alice Cooper - Pain (FRONT ROW)

Alice Cooper - Pain - 10/10/81 - Capitol

Pain - Alice Cooper Live in Springfield,

Alice Cooper - Pain - Live Paris 2017

Alice Cooper - Pain Live at The Olympia

Alice Cooper - Pain Live 2017 HD

»
Najnavštevovanejšie piesne
Najnavštevovanejšie piesne
Poison - akordy a text

Poison - akordy a text

Poison - preklad

Poison - Jed - preklad

Poison Version 2 - akordy a text

Poison -

Dáblova Bota - akordy

Hey Stoopid - text

Poison - taby

Poison - Oprava - text

Changing Arranging - text

Earwigs To Eternity - text

Apple Bush - text

Poison *** - text

Trash - text

Hell Is Living Without You - text

Loves A Loaded Gun - preklad

School\'s Out - text

Love\'s A Loaded Gun - akordy a text

Welcome To My Nightmare - preklad

viac




home | interpreti | register piesní | cd & dvd shop | pripomienky/nápady | kontakt | ochrana údajov | inzercia

TOPlist