Gary Moore

piesne (126)

  texty (100) / preklady (2)
  akordy (0) / taby (24)
  noty (0) / slideshow (0)

články (28)
fotogaléria
diskusia
videá
diskografia
v obchode
odkazy
koncerty
sťahuj



pridaj vlastný článok

Björk:
Nové desky 47/2017 - od Noela Gallaghera přes Björk po Garyho Moora - Vydáno: 26.11.2017 15:13 v sekci Nové desky - Tomáš Parkan a Petra Hubáčková Zbý... - musicserver.cz


Ac/dc:
Hudební legenda Tony Platt míří do české metropole - Ve čtvrtek 5. září 2013 přistane na Letišti Václava Havla v Praze letadlo s legend... - Ing. Petra Špičková


Gary Moore:
Gary Moore - Still Got The Blues - muzikus.cz


Gary Moore:
Gary Moore - pamiatka na jeden z posledných koncertov - frenky.sk


Gary Moore:
Gary Moore: Gitarový hrdina - sme.sk


Gary Moore:
Gary Moore: Zomrel na infarkt - pluska.sk


Gary Moore:
Irský kytarista Gary Moore zemřel bez cizího zavinění - centrum.cz


Gary Moore:
Moore asi zomrel prirodzenou smrťou - hnonline


Gary Moore:
Gary Moore zemřel na dovolené ve Španělsku. Bylo mu 58 let - rozhlas.cz


Gary Moore:
Gary Moore asi zemřel přirozenou smrtí - ceskenoviny.cz


 

Gary Moore

Fanúšikov: 3



A B C Č D E F G H CH I J K L Ľ M N O P Q R S Š T U V W X Y Z Ž



ako:
Gary Moore - Parisienne Walkways - solo Guitar
Gary Moore - Parisienne Walkways - solo Guitar

tlač

edituj
Pesničku videlo 2333 návštevníkov.

Kvalita tabov : bez hodnotenia
Hodnotilo ľudí: 0 ohodnoť aj ty

Parisienne Walkways


Solo Gtr
Last parts of the solo is from a concert




E||----------------|----------------|------------------|----------------------|
B||----------------|----------------|--15b---------15--|--13----12------------|
G||----------------|----------------|------------------|--------------12b-12--|
D||----------------|----------------|------------------|----------------------|
A||--------12------|--7/------------|------------------|----------------------|
E||----------------|---------8/-----|------------------|----------------------|



--------------12--|----------------|------------------|--------------------|
------------------|--13b-----------|--13b---------13--|--12----10----8-----|
--10~-------------|----------------|------------------|-----------------7--|
------------------|----------------|------------------|--------------------|
------------------|----------------|------------------|--------------------|
------------------|----------------|------------------|--------------------|



-----------------|--------------------|------------------|-------------------|
-------------13r-|--13~---------10-12-|--12b---------12--|--10----8----6-----|
--9~-------------|--------------------|------------------|----------------9--|
-----------------|--------------------|------------------|-------------------|
-----------------|--------------------|------------------|-------------------|
-----------------|--------------------|------------------|-------------------|



-----------------|----------------|------------------|-------------------|
-------------12r-|--12~-----------|--10b---------10--|--9----------------|
--7~-------------|----------------|------------------|-------10----9--7--|
-----------------|----------------|------------------|-------------------|
-----------------|----------------|------------------|-------------------|
-----------------|----------------|------------------|-------------------|



-----------------|----------------|------------------|----------------------|
-----------------|----------------|--15b---------15--|--13----12------------|
--5~-------------|----------------|------------------|--------------12b-12--|
-----------------|----------------|------------------|----------------------|
---------12/-----|--7/------------|------------------|----------------------|
-----------------|---------8/-----|------------------|----------------------|



------------------|----------------|------------------|--------------------|
--------------15r-|--15~-----------|--13b---------13--|--12----10----8-----|
--10~-------------|----------------|------------------|-----------------7--|
------------------|----------------|------------------|--------------------|
------------------|----------------|------------------|--------------------|
------------------|----------------|------------------|--------------------|



-----------------|--------------------|------------------|-------------------|
-------------13r-|--13~---------10-12-|--12b---------12--|--10----8----6-----|
--9~-------------|--------------------|------------------|----------------9--|
-----------------|--------------------|------------------|-------------------|
-----------------|--------------------|------------------|-------------------|
-----------------|--------------------|------------------|-------------------|



-----------------|-------------------|----------------|--------------|
-------------12r-|--12--------10--9--|--10~-----------|--------------|
--7~-------------|-------------------|----------------|--------------|
-----------------|-------------------|----------------|--------------|
-----------------|-------------------|----------------|--------------|
-----------------|-------------------|----------------|--------------|



------------------|--12~-----13b-----|--13b-------13--13--|--13~-----------|
--------14~---15~-|------------------|--------------------|----------------|
------------------|------------------|--------------------|----------------|
------------------|------------------|--------------------|----------------|
------------------|------------------|--------------------|----------------|
------------------|------------------|--------------------|----------------|



------------------|--10~-----13------|--12b-------10b---|--10b-----------|
--------12~---13~-|------------------|------------------|----------------|
------------------|------------------|------------------|----------------|
------------------|------------------|------------------|----------------|
------------------|------------------|------------------|----------------|
------------------|------------------|------------------|----------------|



------------------|--8--------10b---|--10b---------10--|--10------------|
--------10----12--|-----------------|------------------|----------------|
------------------|-----------------|------------------|----------------|
------------------|-----------------|------------------|----------------|
------------------|-----------------|------------------|----------------|
------------------|-----------------|------------------|----------------|



-----------------|--7~-----8------|--8b-----8-7-7h8h7h5-7h5---5---|
--------9----10--|----------------|-------------------------8---8-|
-----------------|----------------|-------------------------------|
-----------------|----------------|-------------------------------|
-----------------|----------------|-------------------------------|
-----------------|----------------|-------------------------------|



----------5-----------------------------|---|--------------|--15------------|
--8h5---5---8h5-------5-----------------|---|--------------|----------------|
------7b--------8h7h5---7h5-------------|---|--------------|----------------|
----------------------------7h5---------|---|--------------|----------------|
--------------------------------7h5-3b--|---|--------------|----------------|
----------------------------------------|---|--------------|----------------|



--13------------|------------------|-------13-------13h15-|----13--------------|
----------------|------------12h13-|--12------------------|--------------15r15b|
----------------|------------------|----------------------|--------------------|
----------------|------------------|----------------------|--------------------|
----------------|------------------|----------------------|--------------------|
----------------|------------------|----------------------|--------------------|



------------------|------------------|--------------|--12----------10--|
------------17-15h|--13h15-----------|--------------|------------------|
------------------|------------------|--------------|------------------|
------------------|------------------|--------------|------------------|
------------------|------------------|--------------|------------------|
------------------|------------------|--------------|------------------|



--10---------8-10--|--11--------------|--------------------|----------------|
-------------------|--------------13--|--12----------13----|----------------|
-------------------|------------------|-----------------14/|--16------------|
-------------------|------------------|--------------------|----------------|
-------------------|------------------|--------------------|----------------|
-------------------|------------------|--------------------|----------------|



--------------|----------------|--------------|--------------|--------------|
--------------|--------15b-----|--------------|--------------|--------------|
--------------|----------------|--------------|--------------|--------------|
--------------|----------------|--------------|--------------|--------------|
--------------|----------------|--------------|--------------|--------------|
--------------|----------------|--------------|--------------|--------------|



----------------|---------------------------|--------------12-13-|
------------15--|--13----15-13-12-----------|--------------------|
----------------|-------------------12b-12--|--10~---------------|
----------------|---------------------------|--------------------|
----------------|---------------------------|--------------------|
----------------|---------------------------|--------------------|



--10------12------|------------------|---------------------|--------------10--|
------------------|----13b-------13--|--12----10-----8-----|------------------|
------------------|------------------|-----------------7-9-|--7/9-------------|
------------------|------------------|---------------------|------------------|
------------------|------------------|---------------------|------------------|
------------------|------------------|---------------------|------------------|



--8------------|------------------|-------------------------|------------7h8-7-|
---------------|--12b--------12---|--10---------------------|------------------|
---------------|------------------|-------12-----10--9-10-9-|--7---------------|
---------------|------------------|-------------------------|------------------|
---------------|------------------|-------------------------|------------------|
---------------|------------------|-------------------------|------------------|



---------------|----------------|--------------|--------------|
-----------9---|--10~-----------|--------------|--------------|
---------------|----------------|--------------|--------------|
---------------|----------------|--------------|--------------|
---------------|----------------|--------------|--------------|
---------------|----------------|--------------|--------------|



---------------7---|---------------|-------------------|---------------|
----------8-10---8-|---------------|---------------5---|---------------|
-------------------|--9------------|-----------5-7---7-|---------------|
-------------------|---------------|---------7---------|---7-----------|
-------------------|---------------|-------------------|---------------|
-------------------|---------------|-------------------|---------------|



---------------7---|--------------------|-------------------|----------------|
----------8-10---8-|--------------------|----------------5--|----------------|
-------------------|--9--12--9----------|----------5--7-----|--5-------------|
-------------------|--------------------|-------------------|----7-----------|
-------------------|--------------------|-------------------|----------------|
-------------------|--------------------|-------------------|----------------|



-------------8--10----|--10r-10b---------|--------------|----8-----10-----|
---------10-----------|------------------|--------------|-----------------|
------9---------------|------------------|--------------|-----------------|
----------------------|------------------|--------------|-----------------|
----------------------|------------------|--------------|-----------------|
----------------------|------------------|--------------|-----------------|



----12-13-15-13-12h13h12/10-12-10-------------------|-----10-12-13b----------|
----------------------------------13-12-10----10-12-|--13--------------------|
-------------------------------------------12-------|------------------------|
----------------------------------------------------|------------------------|
----------------------------------------------------|------------------------|
----------------------------------------------------|------------------------|



---15b----15-13-12h13h12/10--|--12~-----------|----------------------|
-----------------------------|----------------|----------------------|
-----------------------------|----------------|----------12--14r-----|
-----------------------------|----------------|--12--14--------------|
-----------------------------|----------------|----------------------|
-----------------------------|----------------|----------------------|



----------------|--15-12----12----12-------------------|--17~-----------|
----------------|--------15----15b---15-12-------12-15-|----------------|
--14------------|--------------------------12-14-------|----------------|
----------------|--------------------------------------|----------------|
----------------|--------------------------------------|----------------|
----------------|--------------------------------------|----------------|



--17-19-20-19-17-19-17-15-17-15-13-15-13-12----12r-|--12~-----------|
--------------------------------------------15-----|----------------|
---------------------------------------------------|----------------|
---------------------------------------------------|----------------|
---------------------------------------------------|----------------|
---------------------------------------------------|----------------|



--20-------19-------17-------15-------|----------------------|
-----18-17----17-15----15-13----13-12-|--13--------------12--|
--------------------------------------|--------------12------|
--------------------------------------|----------14----------|
--------------------------------------|----------------------|
--------------------------------------|----------------------|



-----------------------------------------------|
--13-15-13-12-13-12----------------------------|
--------------------14-16-14-12-14-12----------|
-----------------------------------------------|
--------------------------------------------14-|
--------------------------------------12-15----|



--------------------------------------------------------|----------------|
--------------------------------------------17----------|----------------|
-----------16----17-16-14----19-17-16-17-19----19-17-16-|--14~-----------|
--------14----16----------17----------------------------|----------------|
--14-15-------------------------------------------------|----------------|
--------------------------------------------------------|----------------|



--15b-12----------12-15-12-------------12-------------------|
---------15-12-------------15-12----12----15-12-------------|
---------------14b---------------14b------------14r12----12-|
------------------------------------------------------14----|
------------------------------------------------------------|
------------------------------------------------------------|



-----------------------------------------|--15b-----------|
--------12-15b-------12-15b-------12-15b-|----------------|
-----12-----------12-----------12--------|----------------|
--14-----------14-----------14-----------|----------------|
-----------------------------------------|----------------|
-----------------------------------------|----------------|



--15b-12-------15-12----12-13-12----------------12-------------|
---------15-12----------------------12-13-12-------15-12-------|
---------------------14----------------------------------14-12-|
---------------------------------14----------14r---------------|
---------------------------------------------------------------|
---------------------------------------------------------------|



-----------------------------------|------------------|----------------------|
-----------------------------------|------------------|----------13--15r-----|
-----------------------------------|------------------|------14--------------|
--14-12----------------------------|------------------|--14------------------|
--------15-14-12-14-------14r------|------12----------|----------------------|
--------------------12-13----------|--15--------------|----------------------|



----------------|------15--17--19r---15--|--17------------|
--15b-----------|--17--------------------|----------------|
----------------|------------------------|----------------|
----------------|------------------------|----------------|
----------------|------------------------|----------------|
----------------|------------------------|----------------|



--12--13--12--10--12--10--8--10--8--|--7--8--7--5--7--5--3--5--3--|
------------------------------------|-----------------------------|
------------------------------------|-----------------------------|
------------------------------------|-----------------------------|
------------------------------------|-----------------------------|
------------------------------------|-----------------------------|



---------5------|----------------------12--|----------------|--------------|
--5-------------|----------13--------------|----------------|--------------|
----------------|------14----------12------|--12b-----------|--------------|
----------------|--15----------14----------|----------------|--------------|
----------------|--------------------------|----------------|--------------|
----------------|--------------------------|----------------|--------------|



----5-----------------------------------------|---------------||
------8-5-------------------------------------|---------------||
--7b------7-5---5-7r5-4-----------------------|---------------||
--------------7---------7-5---5---------------|---------------||
----------------------------7---7-5-3-5-3-----|---------------||
------------------------------------------5-3-|--5------------||




 
»
Tvoje obľúbené položky
Tvoje obľúbené položky
»
Nové albumy interpreta
Nové albumy interpreta
4xCD Moore Gary Blues and beyond
4xCD Blues and
beyond
2xCD Moore Gary Blues and beyond
2xCD Blues and
beyond
4xVINYL Moore Gary Blues and beyond [vinyl]
4xVINYL Blues and
beyond
[vinyl]
VINYL Moore Gary After hours [vinyl]
VINYL After
hours
[vinyl]
VINYL Moore Gary After the war [vinyl]
VINYL After the
war
[vinyl]
VINYL Gary Moore Still got the blues [vinyl]
VINYL Still got
the blues
[vinyl]
»
Najnovšie videá
Najnovšie videá

Gary Moore - Parisienne Walkways (Best V

Gary Moore - Parsienne Walkways Live Mo

Gary Moore - Parisienne Walkways (Live a

Gary Moore - Parisienne Walkways

Gary Moore with Phil Lynott - Parisienne

GARY MOORE - Parisienne Walkways

»
Najnavštevovanejšie piesne
Najnavštevovanejšie piesne



home | interpreti | register piesní | cd & dvd shop | pripomienky/nápady | kontakt | ochrana údajov | inzercia

TOPlist