Punkasius

piesne (41)

  texty (16) / preklady (0)
  akordy (1) / taby (25)
  noty (0) / slideshow (0)

články (0)
fotogaléria
diskusia
videá
diskografia
v obchode
odkazy
koncerty
sťahuj



pridaj vlastný článok

Punkasius:
Start Punkasius 3.12.2012 - 30.11.2012 (Pátek) měl schůzku Tomáš s Michalem a ten den si společně zahráli. J...


Punkasius:
Jak Vznikl název Punkasius - Kluci vymysleli název punkasius, až po delší době hraní.. Měli hodně nápadů, ...


 

Punkasius

Fanúšikov: 0



A B C Č D E F G H CH I J K L Ľ M N O P Q R S Š T U V W X Y Z Ž



ako:
Punkasius - Co Teď S Náma Bude (Guitar)
Punkasius - Co Teď S Náma Bude (Guitar)



tlač

edituj
Rok vzniku: 2013
Pesničku videlo 2284 návštevníkov.

Kvalita tabov : bez hodnotenia
Hodnotilo ľudí: 0 ohodnoť aj ty
Prispievateľ:

Punkasius
  *** Autor textu: Punkasius *** Autor hudby: Punkasius
Intro

E ----------------------------------------------------------------
H ----------------------------------------------------------------
G --99999-99999---------------------------------------------------
D --99999-99999--1111111111-1111111111--99999-99999--77777-77777--
A --77777-77777--1111111111-1111111111--99999-99999--77777-77777--
E ---------------9-9-9-9-9--9-9-9-9-9---77777-77777--55555-55555--

Sloka

E----------------------------------------------------------------------
H----------------------------------------------------------------------
G----------------------------------------------------------------------
D--9999999999999999----------------------------------------------------
A--7777777777777777-11111111111111111111111111111111-9999999999999999--
E-------------------9-9-9-9-9-9-9-9-9-9-9-9-9-9-9-9--7777777777777777--

E----------------------------------------------------------------------
H----------------------------------------------------------------------
G----------------------------------------------------------------------
D----------------------------------------------------------------------
A--7777777777777777----------------------------------------------------
E--5555555555555555----------------------------------------------------

Před Ref.

E ----------------------I----I--------------------------
H ----------------------I----I--------------------------
G ----------------------I----I--------------------------
D --4444-4446-7777-7777-I-4x-I--9999--------------------
A --4444-4446-7777-7777-I----I--9999--------------------
E --2222-2224-5555-5555-I----I--7777--------------------

Ref.

E ----------------------------------------------------
H ----------------------------------------------------
G ----------------------------------------------------
D --2-2--4-4--7777-7777-------------------------------
A --2-2--4-4--7777-7777-------------------------------
E --0-0--2-2--5555-5555-------------------------------

 
»
Tvoje obľúbené položky
Tvoje obľúbené položky
»
Nové albumy interpreta
Nové albumy interpreta

»
Najnovšie videá
Najnovšie videá

Punkasius - Live in Suchdol Cel Koncert
»
Najnavštevovanejšie piesne
Najnavštevovanejšie piesne



home | interpreti | register piesní | cd & dvd shop | pripomienky/nápady | kontakt | ochrana údajov | inzercia

TOPlist