Sitňan

piesne (59)

  texty (50) / preklady (0)
  akordy (17) / taby (6)
  noty (0) / slideshow (0)

články (10)
fotogaléria
diskusia
videá
diskografia
v obchode
odkazy
koncerty
sťahuj



pridaj vlastný článok

Cenzúra:
Punkáči deťom, Brezová pod Bradlom - musiczone.cz


Majster Kat:
4. METAL FEST Trnavá Hora - Dňa 23.7.2005 v sobotu sa uskutoční 4. ročník METAL FESTU v Trnavej Hore pri Žiari ...


Brickfield:
Punk Rock made in Slovakia vol. 4 - Punk Rock made in Slovakia vol. 4 Vychádza: 15. mája 2005 Vydáva: Musica...


Braňo Alex:
PUNK ROCK made in Slovakia vol.4 IS NOT DEAD - Producent Vlado Lamoš a vydavateľstvo Musica s.r.o. príde na trh s unikátnym projekto...


Sex Deviants:
Fotoreport: Antifest no. X - sobota (7.8.2004) - Antifest no. X - sobota (7.8.2004) Fotky z již desátého ročníku tradičního punk... - musicphoto.cz


Apple Juice:
Barvy léta, Praha, Štvanice, 14.5.-16.5.2004 - Barvy léta, Praha, Štvanice, 14.5.-16.5.2004 Albi, FiPa, 22.5.2004. Čtenost: +++ ... - musiczone.cz


Sitňan:
Žiaranský Sitňan - Žiaranský Sitňan 18. dubna 2004, 06:01 Robert Buček Skupina Sitňan vznikla v... - musicservice.cz


Sitňan:
Nové CD skupiny SITŇAN - Po nahratí albumu bude nasledovať tour "Nemravné závislosti" po slovenských, a sná...


Sitňan:
História skupiny Sitňan - História skupiny Sitňan. Skupina Sitňan vznikla v roku 1992 v Žiari nad Hrono... - host.sk


Sitňan:
Nový album skupiny Sitňan. - Nový album skupiny Sitňan. Dňa 20.marca 2004 sa skupina Sitňan (ZH) chystá do štú... - rockforum.host.sk


 

Sitňan

Fanúšikov: 1



A B C Č D E F G H CH I J K L Ľ M N O P Q R S Š T U V W X Y Z Ž



ako:
Sitňan - Všetko čo mám rád
Sitňan - Všetko čo mám rád

tlač

edituj
Pesničku videlo 3540 návštevníkov.

Kvalita tabov : bez hodnotenia
Hodnotilo ľudí: 0 ohodnoť aj ty
Prispievateľ:

romhead
  *** Autor textu: Sitňan *** Autor hudby: Sitňan
Intro, sloha

(G) 4x (E) 4x (C) 4x (D) 2x
G-----------|----------|-----5---|-----7----|-7-9-9-9-9-7-7-7--
D------5----|-----2----|---5---5-|---7---7--|-7-9-9-9-9-7-7-7--
A----5---5--|---2---2--|-3-------|-5--------|-5-7-7-7-7-5-5-5--
E--3--------|-0--------|---------|----------|------------------

S výkonom práce rastie chuť
G-------------------5-5-5-5--7-7-7-7--
D-5-5-5-5--2-2-2-2--5-5-5-5--7-7-7-7--
A-5-5-5-5--2-2-2-2--3-3-3-3--5-5-5-5--
E-3-3-3-3--0-0-0-0--------------------

Piaty či deviaty
D--5-5x-5x-5x--10-10x-10x-10x--9-9x-9x-9x--7-7x-7x-7x--
A--5-5x-5x-5x--10-10x-10x-10x--9-9x-9x-9x--7-7x-7x-7x--
E--3-3x-3x-3x--8--8x--8x--8x---7-7x-7x-7x--5-5x-5x-5x--

Riffík
3x
A--5-5-555--9-10--|--12-12-12-12-10-9-7--
E--3-3-333--7-8---|--10-10-10-10-8--7-5--

Sólo 3x
G--12-14-12~-14-12----12~--12-14-12~---------|-14-12-12x--|--12~-14~--
D------------------14----------------14-12~--|------------|-----------

 
»
Tvoje obľúbené položky
Tvoje obľúbené položky
»
Nové albumy interpreta
Nové albumy interpreta

»
Najnovšie videá
Najnovšie videá

Sitan - Vetko o m rd

Sitan - o je to lska

HEX - Vetko o mm rd (2000)

Vetko o mm rd 1992 uptavka

Sitnan - Stratena generacia

Sitan - Piese optimistu
»
Najnavštevovanejšie piesne
Najnavštevovanejšie piesne
Bohyňa - akordy a text

Prečo chlap - akordy a text

Všetko čo mám rád - taby

Nemravné závislosti (dobry refren) - akordy

Prečo chlap - Intro - taby

Parazit - akordy a text

Každému čo jeho je - text

V čase veľkej slávy - akordy

Horská liga - akordy a text

Nemravne zavislosti - akordy

šaman - text

Matka - text

V čase veľkej slávy - akordy a text

Ou, je to z hôr - akordy a text

Šaman - akordy a text

Tuberák - akordy a text

Matka - akordy a text

Každému čo jeho je - akordy a text

Slovan - akordy a text

Pieseň optimistu - akordy a text

viac




home | interpreti | register piesní | cd & dvd shop | pripomienky/nápady | kontakt | ochrana údajov | inzercia

TOPlist