Martin Madej

piesne (14)

  texty (12) / preklady (0)
  akordy (4) / taby (1)
  noty (0) / slideshow (1)

články (5)
fotogaléria
diskusia
videá
diskografia
v obchode
odkazy
koncerty
sťahuj



pridaj vlastný článok

Martin Madej:
Martin Madej žiari svojskými tanečnými kreáciami - Slovenský spevák Martin Madej baví publikum úsmevnou tanečnou choreografiou v hudobn...


Martin Madej:
Martin Madej s The Pastels to roztancovali v novom klipe: A Ferrari samozrejme
nemôže chýbať!
- Martin Madej s The Pastels to roztancovali v novom klipe: A Ferrari samozrejme nemôže c... - cas.sk


Bažant Pohoda:
Pauhofová a Madej na festivale Pohoda: Čo tí dvaja spolu majú? - Pauhofová a Madej na festivale Pohoda: Čo tí dvaja spolu majú?" width="458" height="2... - cas.sk


Martin Madej:
Spevák Martin Madej: Chce sa opäť vrátiť k Mirke Partlovej! - pluska.sk


Martin Madej:
Kedysi detský spevák Martin Madej je prekvapený, že ho ľudia aj po 15
rokoch spoznávajú
- sme.sk


Martin Madej:
Na premiéru muzikálu Boyband príde aj jeho britský autor Peter Quilter - hudba.sk


 

Martin Madej

Fanúšikov: 1



A B C Č D E F G H CH I J K L Ľ M N O P Q R S Š T U V W X Y Z Ž



ako:
Martin Madej - Just The Other One
Martin Madej - Just The Other One



tlač

edituj
Pesničku videlo 2581 návštevníkov.

Kvalita tabov : bez hodnotenia
Hodnotilo ľudí: 0 ohodnoť aj ty
Prispievateľ:

majo
Intro:

E ---------|-----------|---------|----------|
H ------7--|-------10--|------5--|--------5-|
G ---------|-----------|---------|-----4----|
D ---------|----11-----|---------|--2-------|
A ---------|--9--------|---------|----------|
E ---7-----|-----------|--5------|----------|

E ---------|-----------|---------|----------|
H ------7--|-------10--|------3--|------7---|
G ---------|-----------|------4--|------7---|
D ---------|----11-----|------5--|------7---|
A ---------|--9--------|---------|--5-------|
E ---7-----|-----------|--3------|----------|

Sloha 1:

E ---------|-----------|---------|----------|
H ------7--|-------10--|------5--|--------5-|
G ---------|-----------|---------|-----4----|
D ---------|----11-----|---------|--2-------|_
A ---------|--9--------|---------|----------| _
E ---7-----|-----------|--5------|----------| _
_ 2x
E ---------|-----------|---------|----------| _
H ------7--|-------10--|------3--|------7---| _
G ---------|-----------|------4--|------7---|-
D ---------|----11-----|------5--|------7---|
A ---------|--9--------|---------|--5-------|
E ---7-----|-----------|--3------|----------|

Prechod:

e --------------------------| e -----------------------|
B ---7--7----7----9----10---| B ---7--7----7-------9---|
G ---7--7----7----9----11---| G ---7--7----7------9----|
D ---7--7----7----9----11---| D ---7--7----7-----9-----|
A --------------------------| A -----------------------|
E ---7--7----7----9----10---| 3x, potom E ---7--7----7----9------|

Refrén:
Refrén je hraný akordami: [A], [H], [F#mi], [G] 2x

Medzihra:

E ---------|-----------|---------|----------|---------|-----------|
H ------7--|-------10--|------5--|--------5-|------7--|-------10--|
G ---------|-----------|---------|-----4----|---------|-----------|
D ---------|----11-----|---------|--2-------|---------|----11-----|
A ---------|--9--------|---------|----------|---------|--9--------|
E ---7-----|-----------|--5------|----------|---7-----|-----------|

Sloha 2:

E ---------|-----------|---------|----------|
H ------7--|-------10--|------5--|--------5-|
G ---------|-----------|---------|-----4----|
D ---------|----11-----|---------|--2-------|_
A ---------|--9--------|---------|----------| _
E ---7-----|-----------|--5------|----------| _
_ 2x
E ---------|-----------|---------|----------| _
H ------7--|-------10--|------3--|------7---| _
G ---------|-----------|------4--|------7---|-
D ---------|----11-----|------5--|------7---|
A ---------|--9--------|---------|--5-------|
E ---7-----|-----------|--3------|----------|

Prechod:

e --------------------------| e -----------------------|
B ---7--7----7----9----10---| B ---7--7----7-------9---|
G ---7--7----7----9----11---| G ---7--7----7------9----|
D ---7--7----7----9----11---| D ---7--7----7-----9-----|
A --------------------------| A -----------------------|
E ---7--7----7----9----10---| 3x, potom E ---7--7----7----9------|

Refrén:
[A], [H], [F#mi], [G] 2x

Bridge 1:

e ----------|---------|-----------------------------------|
B ---7---7--|--9---9--|--10--10--10--10--10--10--10--10---|
G ---7---7--|--9---9--|--11--11--11--11--11--11--11--11---|
D ---7---7--|--9---9--|--11--11--11--11--11--11--11--11---|
A ----------|---------|-----------------------------------|
E ---7---7--|--9---9--|--10--10--10--10--10--10--10--10---| 2x

Bridge 2:

Hrá el. gitara ako refrén: [A], [H], [F#mi], [G] 2x

Refrén (2x):

[A], [H], [F#mi], [G] 2x

Outro:

e --------------------------| e -----------------------|
B ---7--7----7----9----10---| B ---7--7----7-------9---|
G ---7--7----7----9----11---| G ---7--7----7------9----|
D ---7--7----7----9----11---| D ---7--7----7-----9-----|
A --------------------------| A -----------------------|
E ---7--7----7----9----10---| 3x, potom E ---7--7----7----9------|


 
»
Tvoje obľúbené položky
Tvoje obľúbené položky
»
Nové albumy interpreta
Nové albumy interpreta
2xCD Madej Boguslaw Dyrygenci polscy
2xCD Dyrygenci polscy
DVD Madejsky: Die pflanze als zeiger,dvd
DVD Die pflanze als
zeiger,dvd

»
Najnovšie videá
Najnovšie videá

Martin Madej & The Pastels - Sunday

Martin Madej - Just the other one (live@

Martin Madej - Just The Other One (2013)

Martin Madej o kra

Martin Madej - Kanibali

Martin Madej - The Pastels Sunday (OTO 2
»
Najnavštevovanejšie piesne
Najnavštevovanejšie piesne
Bobi - akordy a text

Ferrari - akordy a text

Ferrari - text

Mám dobrú babu - text

Indian - text

Kanibali - text

Skús môj svet - text

Bobi 2 - akordy a text

Skús môj svet 2004 - text

Skús Môj Svet.. - text

Bobi 2 - text

Just The Other One - taby

Sunday - slideshow

Buldozér - akordy a text




home | interpreti | register piesní | cd & dvd shop | pripomienky/nápady | kontakt | ochrana údajov | inzercia

TOPlist