Dr. Pako

piesne (40)

  texty (28) / preklady (0)
  akordy (12) / taby (6)
  noty (0) / slideshow (0)

články (2)
fotogaléria
diskusia
videá
diskografia
v obchode
odkazy
koncerty
sťahuj



pridaj vlastný článok

Dr. Pako:
Dr. Pako opäť koncertuje a vôbec prvý krát vystúpi v Bratislave - hudba-music.sk


Dr. Pako:
Melodická punk rocková skupina Dr. Pako prvý krát “ordinuje” v
Bratislave
- musicpress.sk


 

Dr. Pako

Fanúšikov: 3



A B C Č D E F G H CH I J K L Ľ M N O P Q R S Š T U V W X Y Z Ž



ako:
Dr. Pako - Stále Si Opakovať
Dr. Pako - Stále Si Opakovať

tlač

edituj
Rok vzniku: 2002
Poznámka: by tapkooo

Pesničku videlo 1761 návštevníkov.

Kvalita tabov : bez hodnotenia
Hodnotilo ľudí: 0 ohodnoť aj ty
Prispievateľ:

tapkooo
  *** Autor textu: Dr. Pako *** Autor hudby: Dr. Pako
INTRO
e|-----------------
H|-----------------
G|--2-------/3x--2-
D|--2-4-5-6------2-
A|--0-4-5-6------0-
E|----2-3-4--------

Intro+Sloha
e|-----------------
H|-----------------
G|-----4--/3x--2-4-
D|--2--4-------2-4-
A|--2--2-------0-2-
E|--0--------------

Ref.
e|-----------------------------
H|-----------------------------
G|--9-6-8--9-11-9---/2x--9-/4x-
D|--9-6-6--7-9--9-9------9-----
A|--7-4---------7-9------7-----
E|----------------7------------

 
»
Tvoje obľúbené položky
Tvoje obľúbené položky
»
Nové albumy interpreta
Nové albumy interpreta

»
Najnovšie videá
Najnovšie videá

Dr. Pako-Nepamtm si

Dr.Pako - Slobodn

Dr.Pako - Vymaluj Si Svet

Dr.Pako - Serieme na vas

Dr. Pako - Cel Svet Je Tvoj

Dr. Pako - S Laskou.wmv
»
Najnavštevovanejšie piesne
Najnavštevovanejšie piesne



home | interpreti | register piesní | cd & dvd shop | pripomienky/nápady | kontakt | ochrana údajov | inzercia

TOPlist