Kollerband

piesne (20)

  texty (19) / preklady (0)
  akordy (3) / taby (1)
  noty (0) / slideshow (0)

články (53)
fotogaléria
diskusia
videá
diskografia
v obchode
odkazy
koncerty
sťahuj



pridaj vlastný článok

David Koller:
David Koller plánuje vydať nový album v marci - Český hudobník David Koller v súčasnosti pripravuje nový sólový album. Člen kape...


David Koller:
Koller chystá na Vianoce album - Po štvorročnej pauze sa český spevák a muzikant David Koller vracia na hudobný trh ...


Kollerband:
Guitar Night už dnes! - box.sk


David Koller:
Kollerband dočasne pozastaví svoju činnosť - sme.sk


David Koller:
Koller opouští Lucii, nechce obtěžovat spoluhráče - zpravy.cz


David Koller:
Koller: Spolupráca s Davidom Biancom bola úžasná - Koller: Spolupráca s Davidom Biancom bola úžasná BRATISLAVA 24. septembra (SITA) -...


Kollerband:
Marek Minárik chce nahrať pre dídžejov vlastný vinyl - Marek Minárik chce nahrať pre dídžejov vlastný vinyl BRATISLAVA 21. septembra (SI...


David Koller:
Koller: V kapele si už rozumieme aj bez slov - Koller: V kapele si už rozumieme aj bez slov BRATISLAVA 21. septembra (SITA) - Legend...


Kollerband:
KOLLERBAND 23. septembra v klube Babylon v BA - V rámci koncertného turné 2005 vystúpi skupina Kollerband 23.9 aj v Bratislave. Náv...


David Koller:
Kollerband: David Černý chcel kovový obal už minulý rok - Kollerband: David Černý chcel kovový obal už minulý rok BRATISLAVA 19. septembra ...


 

Kollerband

Fanúšikov: 6



A B C Č D E F G H CH I J K L Ľ M N O P Q R S Š T U V W X Y Z Ž



ako:
Kollerband - Milá-Basové taby
Kollerband - Milá-Basové taby



tlač

edituj
Pesničku videlo 2191 návštevníkov.

Kvalita tabov : bez hodnotenia
Hodnotilo ľudí: 0 ohodnoť aj ty
Prispievateľ:

Hudino
 Pesnička je v tónoch presná ale niektoré party sa hrajú v iných oktávach (Minárik má podladenú bassu)
Urobil som Vám to tak aby sa to dalo hrať na klasickom ladení.Good Luck !


Intro


G|---------------------
D|---------------------
A|---------------------
E|--0-0-00-0-0-00-22---


Verse


G|--------------------------------------
D|---------6-----6-9--------------------
A|-4---6h7---6h7------------------------
E|-------------------0-0-00-0-0-00-22---


----------------------------------------
---------6-----6-9----------------------
-4---6h7---6h7-------------2-----2-6----
-------------------0-0-2h4---2h4--------


Chorus

G|-------------------
D|-------------------
A|--------4(x12)-----
E|-5(x12)--------0---


-----------------------------------
-----------------------------------
--------4-4-4-44-4-4-4-4-4-7-6-4---
-5(x12)----------------------------

-----------------------
-----------------------
--------4(x12)---------
-5(x12)--------0-1-2---

-------------------------------------
-------------------------------------
---------------------0--00-2--22-4---
-2--2-22-2-2-2-2-2-4-----------------


Interlude

G|-----------------------------------------
D|-----------------------------------------
A|-4-4-4444-444-4-4-0-2-2-222-0-0-0-00-2---
E|-----------------------------------------


Outro
G|-6----------6---------6-6---
D|---------4----------4-------
A|---4-6-7------4-6-7---------
E|----------------------------




h=hammer-on





 
»
Tvoje obľúbené položky
Tvoje obľúbené položky
»
Nové albumy interpreta
Nové albumy interpreta
6

»
Najnovšie videá
Najnovšie videá
»
Najnavštevovanejšie piesne
Najnavštevovanejšie piesne
Lehká - akordy a text

Valy - akordy a text

Lehká 2 - akordy a text

Milá-Basové taby - taby

Milá - text

Mám chuť lhát - text

Hádky - text

MAJOLENKA - text

NA CO PŘI TOM MYSLÍŠ - text

NA MĚ ZAPOMEŇ - text

Durman - text

Slunovrat - text

Hledáme se - text

Jezdci - text

Těžkej sen - text

Miláčku, Love - text

BALADA O KOCOUROVI A BYLINĚ - text

DO SMRTI DOBRÝ, DO SMRTI ZLÝ - text

ŘETĚZY - text

SEDÍ, PIJE - text

viac




home | interpreti | register piesní | cd & dvd shop | pripomienky/nápady | kontakt | ochrana údajov | inzercia

TOPlist