Hypocrisy

piesne (214)

  texty (128) / preklady (19)
  akordy (0) / taby (67)
  noty (0) / slideshow (0)

články (2)
fotogaléria
diskusia
videá
diskografia
v obchode
odkazy
koncerty
sťahuj



pridaj vlastný článok

Hypocrisy:
Melodičtí sekerníci HYPOCRISY plánují novou desku na léto - spark News, hypocrisy 17.05.18 15:30 Melodičtí sekerníci HYPOCRISY plánují novou de... - spark-rockmagazine.cz


Hypocrisy:
HYPOCRISY ukončili nejdelší albovou pauzu - Peter Tägtgren konečně prolomil mlčení a vlastně tím tak ukončil nejdelší albov... - metalforever.info


Hypocrisy:
Hypocrisy chcú počas leta dokončiť nový album - HYPOCRISY chystajú nový album. IMMORTAL, MARDUK a Jonathan Davis zverejnili nové sklad... - valhalla.sk


Dying Fetus:
Extrémní metal v Praze: Heaven Shall Burn, Hypocrisy, Dying Fetus - Extrémní metal v Praze: Heaven Shall Burn, Hypocrisy, Dying Fetus];" target="_blank">He... - IREPORT


Hypocrisy:
HYPOCRISY - Nové lyric video - Klypso ... - metalopolis.net


Hypocrisy:
HYPOCRISY - Virus 2005 recenzia - Po trochu umiernenejsej, ale aj tak dobrej placke The Arrival nam pripravili Hypocrisy ho...


Hypocrisy:
HYPOCRISY - A Taste of Extreme Divinity 2009 recenzia - Zatial najcerstvejsia nahravka z dielne nadcasovych velmajstrov extremneho death metalu. ...


Hypocrisy:
HYPOCRISY Penetralia 1992 recenzia - Debut Hypocrisy Penetralia predstavoval na svoju dobu hodne drsny, provokativny material....


Hypocrisy:
HYPOCRISY Osculum Obscenum 1993 recenzia - Uz pri uvodnych tonoch Pleasure of Molastation je jasne, o co tu pojde. Hypocrisy na svoj...


Hypocrisy:
HYPOCRISY The Fourth Dimension 1994 - Treti pocin The Fourth Dimension by sa dal oznacit za zvlstny album.Kapelu uz tvoria len ...


 

Hypocrisy

Fanúšikov: 6



A B C Č D E F G H CH I J K L Ľ M N O P Q R S Š T U V W X Y Z Ž



ako:
Hypocrisy - Paled Empty Sphere
Hypocrisy - Paled Empty Sphere

tlač

edituj
Pesničku videlo 1928 návštevníkov.

Kvalita tabov : bez hodnotenia
Hodnotilo ľudí: 0 ohodnoť aj ty
Prispievateľ:

mam vas v...

From the album 'Hypocrisy'

Transcription by Matt Deans
longjocks@yahoo.com


7-String Arrangement, Low to High - B,E,A,D,G,B,E

For 6-Strings, tune Low to High - E,A,D,G,B,E ignoring all notes in chords that
occur on the low 'B' string. Instead play those notes an octave higher. ie...

A|-----| D|-----|
E|--3--| ..becomes.. A|--3--|
B|--1--| E|--3--|


INTRO


|Guitar 1 - clean w/reverb & delay
|
|Riff A End Riff A
|--------------------------------|
|--------------------------------|
|--------------------0-------0---|
|----5-------5-----7---7---2---2-|
|--7-----------7-5-------3-------|
|0-------------------------------|
|--------------------------------|
1 2 3 4

Guitar 1 plays this riff 4 times before Guitar 2 begins. Guitar 1
then continues to play Riff A underneath.


|Guitar 2 - clean w/reverb & delay
|
|
|----------------------------------------------------------------|
|----------------------------------------------------------------|
|--------------------9---7---------------------------------------|
|------------7---9-----------10--9---10--9-------------------7-9-|
|7---9---10------------------------------------------------------|
|----------------------------------------------------------------|
|----------------------------------------------------------------|
1 2 3 4

|Guitar 2
|
|
|----------------------------------------------------------------|
|----------------------------------------------------------------|
|----------------------------------------------------------------|
|10----------9-------------------10----------9-----------7-------|
|----------------------------------------------------------------|
|----------------------------------------------------------------|
|----------------------------------------------------------------|


|Guitar 2
|
|
|----------------------------------------------------------------|
|----------------------------------------------------------------|
|--------------------9---7---------------------------------------|
|------------7---9-----------10--9---10--9-----------------------|
|7---9---10------------------------------------------------------|
|----------------------------------------------------------------|
|----------------------------------------------------------------|


|Guitar 2
|
|<- 3 -> <- 3 -> <- 3 ->
|----------------------------------------------------------------|
|8----7--------------------------8----7--------------------------|
|----------------------------------------------------------------|
|----------9-------------------------------9----7----9----10-----|
|----------------------------------------------------------------|
|----------------------------------------------------------------|
|----------------------------------------------------------------|


|Guitar 2
|
|
|----------------------------------------------------------------|
|----------------------------------------------------------------|
|--------------------------------9---7---------------------------|
|9---------------------------------------10--9---7---------------|
|----------------------------------------------------10--9---7---|
|----------------------------------------------------------------|
|----------------------------------------------------------------|


|Guitar 2
|
|
|----------------------------------------------------------------|
|----------------------------------------------------------------|
|----------------------------------------------------------------|
|--------------------------------7-------------7-9/10------------|
|----------------------------9-10--------------------------------|
|0---------------------------------------------------------------|
|----------------------------------------------------------------|


|Guitar 2
|
|
|----------------------------------------------------------------|
|----------------------------------------------------------------|
|--------------------------------9---7---------------------------|
|9---------------------------------------10--9---7---------------|
|----------------------------------------------------10--9---7---|
|----------------------------------------------------------------|
|----------------------------------------------------------------|


|Guitar 1
|
|Riff B End Riff B
|------------------------|------------------------|
|------------------------|------------------------|
|------------------------|------------------------|
|----9-----9-----9-----9-|----10----10----10----10|
|--7-----7-----7-----7---|--7-----7-----7-----7---|
|0-----0-----0-----0-----|0-----0-----0-----0-----|
|------------------------|------------------------|
|1 2 3 4
|Guitar 2*
| R s R s
|Riff C End Riff C
|------------------------|------------------------|----
|-------------------1211|/13----------------1311|/12-
|------------------------|------------------------|----
|------------------------|------------------------|----
|------------------------|------------------------|----
|------------------------|------------------------|----
|------------------------|------------------------|----

* Whether these release-bends are how it's done or not,
it sounds accurate enough to me. The delay for Guitar 2
is also noticeably greater here.


|Guitar 2
|
|
|----------------------------------------------------------------|
|----------------------------------------------------------------|
|--------------------9---7---------------------------------------|
|------------7---9-----------10--9---10--9-----------------------|
|7---9---10------------------------------------------------------|
|----------------------------------------------------------------|
|----------------------------------------------------------------|
1 2 3 4

|Guitar 2
|
|<- 3 -> <- 3 -> <- 3 ->
|----------------------------------------------------------------|
|8----7--------------------------8----7--------------------------|
|----------------------------------------------------------------|
|----------9-------------------------------9----7----9----10-----|
|----------------------------------------------------------------|
|----------------------------------------------------------------|
|----------------------------------------------------------------|


|Guitar 2
|
| <- 3 -> <- 3 ->
|----------------------------------------------------------------|
|----------------------------------------------------------------|
|--------------------------------9----7--------------------------|
|9-----------------------------------------10---9----7----10-----|
|----------------------------------------------------------------|
|----------------------------------------------------------------|
|----------------------------------------------------------------|


|Guitar 2
|
|
|----------------------------------------------------------------|
|----------------------------------------------------------------|
|--------------------------------9---7---------------------------|
|9---------------------------------------10--9---7---------------|
|----------------------------------------------------10--9---7---|
|----------------------------------------------------------------|
|----------------------------------------------------------------|


VERSE 1 - Guitar 1 plays Riff A 4 times.


PRE-CHORUS 1 - Guitar 1 - clean. The production makes it hard to
pick the texture of the chords here. I can only work parts of it
out, but I'm pretty sure that the roots are A,F#,G,E,A,F#,G and B.
Distorted pick slides precede the chorus.


CHORUS 1


|Guitars 3 & 4 - w/ distortion
|
|Riff D
|----------------|----------------|----------------|----------------|
|----------------|----------------|----------------|----------------|
|----------------|----------------|----------------|----------------|
|2---------------|----------------|2---------------|----------------|
|2-------5---3---|2---------------|2-------5---3---|2---------------|
|0-------5---3---|2---------------|0-------5---3---|2---------------|
|--------3---1---|0---------------|--------3---1---|0---------------|
1 2 3 4

|Guitars 3 & 4
|
| End Riff D
|----------------|----------------|----------------|----------------|
|----------------|----------------|----------------|----------------|
|----------------|----------------|----------------|----------------|
|2---------------|----------------|2-------4---5---|----------------|
|2-------5---3---|2---------------|2-------4---5---|2---------------|
|0-------5---3---|2---------------|0-------2---3---|2---------------|
|--------3---1---|0---------------|----------------|0---------------|


|Guitars 3 & 4*
|
|
|----------------|----------------|----------------|----------------|
|----------------|----------------|----------------|----------------|
|----------------|----------------|----------------|----------------|
|2---------------|(2)-------------|(2)-------------|(2)-------------|
|2---------------|(2)-------------|(2)-------------|(2)-------------|
|0---------------|(0)-------------|(0)-------------|(0)-------------|
|----------------|----------------|----------------|----------------|

* Guitars 1 & 2 play riffs B & C twice while this chord is sustained.


VERSE 2 - Same as Verse 1.

PRE-CHORUS 2 - Also the same as the first one.

CHORUS 2 - Guitars 3 & 4 play Riff D.


|Guitars 3 & 4*
|
|
|----------------|----------------|----------------|
|----------------|----------------|----------------|
|----------------|----------------|----------------|
|2-----------2---|(2)-----2-------|(2)-2-----------|
|2-----------2---|(2)-----2-------|(2)-2-----------|
|0-----------0---|(0)-----0-------|(0)-0-----------|
|----------------|----------------|----------------|
1 2 3 4

* Deceptively makes you think it has changed to a 3/4 beat. Play this
section though twice.


SOLO - The grace notes played by the rhythm guitars between the chords
are mainly implied by the bass. The guitars don't always necessarily
play them.


|Guitars 3 & 4*
|
|
|--------------------------------|--------------------------------|
|--------------------------------|--------------------------------|
|--------------------------------|--------------------------------|
|7---------------4---------------|5---------------2---------------|
|7---------------4---------------|5---------------2---------------|
|5---------------2-----------0-2-|3---------------0-------------3-|
|--------------------------------|--------------------------------|
|1 2 3 4
|Guitar 5 - w/ distortion, reverb & delay
|
|s s s s H P s s
|--------------------------------|--------------------------------|
|--------------------------------|--------------------------------|
|/10----------------/15--13-12--|12/131210/12*-----------------|
|------------12-11--------------|--------------------------------|
|--------------------------------|--------------------------------|
|--------------------------------|--------------------------------|
|--------------------------------|--------------------------------|

* This last note in the run actually falls on the second beat.


|Guitars 3 & 4
|
|
|--------------------------------|--------------------------------|
|--------------------------------|--------------------------------|
|--------------------------------|--------------------------------|
|7---------------4---------------|5-------------------------------|
|7---------------4---------------|5---------------2---------------|
|5---------------2-----------0-2-|3---------------2---------------|
|--------------------------------|----------------0---------------|
|
|Guitar 5
| s B
|
|--17-20-19-1715-14~------15-14-|15--17--15--17--17/19~----------|
|--------------------------------|--------------------------------|
|--------------------------------|--------------------------------|
|--------------------------------|--------------------------------|
|0*------------------------------|--------------------------------|
|--------------------------------|--------------------------------|
|--------------------------------|--------------------------------|

* This note sounds like it's an octave higher, but it's not as easy
to play that note and have it sound right. Also, the 7th note of the
first bar falls on the 3rd beat.


|Guitars 3 & 4
|
|
|--------------------------------|--------------------------------|
|--------------------------------|--------------------------------|
|--------------------------------|--------------------------------|
|7---------------4---------------|5---------------2---------------|
|7---------------4---------------|5---------------2---------------|
|5---------------2-----------0-2-|3---------------0-------------3-|
|--------------------------------|--------------------------------|
|
|Guitar 5
| B R s B R s B R B
|
|-------------------15/1715-14-|----17/1917-15-17/19~----------|
|---15/1715-13-----------------|--------------------------------|
|--------------------------------|--------------------------------|
|--------------------------------|--------------------------------|
|--------------------------------|--------------------------------|
|--------------------------------|--------------------------------|
|--------------------------------|--------------------------------|


|Guitars 3 & 4
| PM- - - - -|
|
|--------------------------------|--------------------------------|
|--------------------------------|--------------------------------|
|--------------------------------|--------------------------------|
|7---------------4---------------|5-------------------------------|
|7---------------4---------------|5-------------------------------|
|5---------------2-------------2-|3---------------2-2-2-2-2-2-2-2-|
|--------------------------------|----------------0-0-0-0-0-0-0-0-|
|
|Guitar 5
| B R P P s
|
|22/24-2220-19-2019-----------|----------------19------17------|
|---------------------20/22------|--------------------------------|
|--------------------------------|--------------------------------|
|--------------------------------|--------------------------------|
|--------------------------------|--------------------------------|
|--------------------------------|--------------------------------|
|--------------------------------|[SEE FILL 1 BELOW]--------------|
1 2 3 4

|Guitar 5*
|
|
|/19-----------------------------|
|--------------------------------|
|--------------------------------|
|--------------------------------|
|--------------------------------|
|--------------------------------|
|--------------------------------|

* Note fades as Chorus 3 plays.


||Guitar 5*
||
||Fill 1 End Fill 1
||------------------------------------------------
||------------------------------------------19-17-
||------------------------------------19-17-------
||------------------------19-17-19-17-------------
||------------19-17-19-17-------------------------
||17----19-17-------------------------------------
||------------------------------------------------
1 2

* I'm not really sure of this bit. With the speed, delay and the other
instruments it's difficult to tell. After slowing it down I think I got
most of it, but the first few notes I just couldn't make out so I put
in what sounded the closest.


CHORUS 3 - - Guitars 3 & 4 play Riff D.

OUTRO - Guitar 1 plays Riff A until the song fades.



Legend

H P s B R
|----| Hammer |----| Pull |----| Slide |----| Bend |----| Release
|----| On |----| Off |----| |----| |----| Bend
|5/7-| |75-| |----| |7/9-| |97-|
|----| |----| |5/7-| |----| |----|
|----| |----| |----| |----| |----|
|----| |----| |----| |----| |----|


PM ah nh .
|----| Palm |----| Percuss- |----| Pinch |----| Harmonic |----| Staccato
|----| Mute |----| ive |----| Harmonic |----| |----|
|----| |----| Strum |----| |----| |----|
|----| |----| |----| |12--| |5---|
|----| |----| |3---| |----| |----|
|0---| |X---| |----| |----| |----|



|----| Vibrato |----| Pick |----| Beat
|----| |----| Slide |----|
|9~--| |----| |----|
|----| |----| |----|
|----| |X--| |----|
|----| |----| |----|
1 2


 
»
Tvoje obľúbené položky
Tvoje obľúbené položky
»
Nové albumy interpreta
Nové albumy interpreta
CD Hypocrisy Penetralia osculum obscenum
CD Penetralia
osculum
obscenum
CD Hypocrisy Fourth dimension
CD Fourth
dimension
CD Hypocrisy Into the abyss (arg)
CD Into the
abyss
(arg)
2xVINYL Hypocrisy End of disclosure [vinyl]
2xVINYL End of
disclosure
[vinyl]
CD Hypocrisy End of disclosure
CD End of
disclosure
2xCD Hypocrisy End of disclosure ltd.
2xCD End of
disclosure
ltd.
»
Najnovšie videá
Najnovšie videá

Hypocrisy - Paled Empty Sphere

Hypocrisy • Paled Empty Sphere • (Su

Hypocrisy - Paled Empty Sphere Guitar Tu

Hypocrisy - Paled Empty Sphere

Hypocrisy - Paled Empty Sphere sub. espa

Hypocrisy - Paled Empty Sphere

»
Najnavštevovanejšie piesne
Najnavštevovanejšie piesne



home | interpreti | register piesní | cd & dvd shop | pripomienky/nápady | kontakt | ochrana údajov | inzercia

TOPlist