Zoči Voči

piesne (67)

  texty (51) / preklady (0)
  akordy (30) / taby (8)
  noty (0) / slideshow (0)

články (2)
fotogaléria
diskusia
videá
diskografia
v obchode
odkazy
koncerty
sťahuj



pridaj vlastný článok

Zoči Voči:
Zoči Voči oslavuje leto uleteným klipom - ...


Zoči Voči:
Kapela ZOČI VOČI vydala nový singel Milión Ciest. V klipe si zahral aj Kuko
z Horkýže Slíže!
- 3. novembra 2016 marekmuzika 0 Comments Nitrianska formácia ZOČI VOČI opäť po... - music-zone.eu


Arakain:
Cibula Fest 2015 ohlásil ďalšie novinky - Organizátori Cibula Festu ohlásili ďalšie novinky, ktoré prinesie tento ročník. Ok...


Zoči Voči:
Zoči Voči hlásia prvý vypredaný koncert turné - Skupiny Zoči Voči v tomto období vydáva svoj akustický album s názvom „Audiohe... - duna


Zoči Voči:
Zoči Voči dealujú Audioheroín - Žiadny strach, nikto z členov tejto mladej populárnej skupiny sa nedal na drogy. Názo... - Agentúra DUNA


Call Me Steve:
Na Rock Show Vráble 2014 vystúpi aj Call Me Steve a Porta Inferi - 4. Máj 2014 | Komentáre sú deaktivované Rock Show Vráble 2014 sa už pomaly al... - music-zone.eu


Inekafe:
Po rapovej prichádza rocková vojna: Vratko z Ine Kafe sa pustil do Zoči Voči - Po rapovej prichádza rocková vojna: Vratko z Ine Kafe sa pustil do Zoči Voči ... - aktuality.sk


Ego:
Kapela Zoči Voči sa spojila s Egom! - Slovenská kapela Zoči Voči v piatok vyráža na turné k svojmu novému albumu s názv... - Nikoleta Kováčová


Zoči Voči:
Zoči Voči zverejnili videoklip Čerešne - Nitrianska kapela Zoči Voči zverejnila videoklip k skladbe Čerešne. O réžiu sa post...


Michal Chrenko:
Rock show Vráble 2013 prichádza vo veľkom štýle - Ďalší ročník festivalu Rock Show Vráble 2013 prichádza vo veľkom štýle už 10. ... - Marek Muzika


 

Zoči Voči

Fanúšikov: 34



A B C Č D E F G H CH I J K L Ľ M N O P Q R S Š T U V W X Y Z Ž



ako:
Zoči Voči - Stratený_oprava
Zoči Voči - Stratený_oprava



tlač

edituj
Pesničku videlo 2686 návštevníkov.

Kvalita tabov : bez hodnotenia
Hodnotilo ľudí: 0 ohodnoť aj ty
Prispievateľ:

Vojta
Intro:
E/---------------------------------------------------------------------------------------
H/---------------------------------------------------------------------------------------
G/-11-11--9--7--s9--9--7--/----------/-11-11--9--7--s9--9--s11--9--7-7-7--s9-6
D/----------------------------/ toto 2x/------------------------------------------------
A/-9--9---7--5--s7--7--5---/---------/--9--9---7--5--s7--7--s9---7---5-5-5--s7-4
E/--------------------------------------------------------------------------------------


Po 1. sloce a ref.
E/-----------------------------------------------------------------/
H/-7-----7-----7-----5-----5-----7-----7-----7-----5-----5----/
G/----7-----7-----7-----7-----7-----7-----7-----7-----7-----7-/ 2x
D/----------------------------------------------------------------/

Konec:
Drž Hmoll
E/-2---------2--------------2------------/
H/------3----------3----------------3---/ 2x
G/---4---------4------4--------4-------/
D/--------------------------------------/

 
»
Tvoje obľúbené položky
Tvoje obľúbené položky
»
Nové albumy interpreta
Nové albumy interpreta
CD Zoci Voci Audioheroin
CD Audioheroin

»
Najnovšie videá
Najnovšie videá
»
Najnavštevovanejšie piesne
Najnavštevovanejšie piesne
Nad Prahou - akordy a text

Stratený - akordy a text

3:00 - akordy a text

S Tebou - text

Jeden Dôvod (akusticky) - akordy a text

Aj keď - akordy a text

V Zázraky Neverím - akordy a text

Neverím V Zázraky - text

Klamem - akordy

Jeden Dôvod - text

Stratený - akordy a text

2012 - akordy a text

Neverím V Zázraky - akustik - akordy a text

Nad Prahou - akordy a text

Stratený - text

Utekám - akordy a text

Chem Byť Iná - akordy a text

3:00 - akordy a text

Neverím V Zázraky - akordy a text

Nad Prahou - akordy

viac




home | interpreti | register piesní | cd & dvd shop | pripomienky/nápady | kontakt | ochrana údajov | inzercia

TOPlist