Yngwie Malmsteen

piesne (227)

  texty (143) / preklady (1)
  akordy (0) / taby (83)
  noty (0) / slideshow (0)

články (5)
fotogaléria
diskusia
videá
diskografia
v obchode
odkazy
koncerty
sťahuj



pridaj vlastný článok

Yngwie Malmsteen:
Yngwie Malmsteen nachystal na listopad novou desku - musicserver.cz


10cc:
Nové desky pro 45. týden - musicserver.cz


Beatles:
Hrdinovia šiestich strún. 2. Rock - gitarista.sk


Beatles:
Hrdinovia šiestich strún. 2. Rock - gitarista.sk


Beatles:
Hrdinovia šiestich strún. 2. Rock - gitarista.sk


G3:
G3 Live - Rockin´In The Free World. - G3 Live - Rockin´In The Free World. včera - Recenzie / Albumy - 0 príspevkov - číta... - musicserver.sk


 

Yngwie Malmsteen

Fanúšikov: 4



A B C Č D E F G H CH I J K L Ľ M N O P Q R S Š T U V W X Y Z Ž



ako:
Yngwie Malmsteen - Paganinis Caprice #5 In A Minor
Yngwie Malmsteen - Paganinis Caprice #5 In A Minor

tlač

edituj
Pesničku videlo 2050 návštevníkov.

Kvalita tabov : bez hodnotenia
Hodnotilo ľudí: 0 ohodnoť aj ty
Prispievateľ:

Jesus

Paganinis Caprice #5 In A Minor

Yngwie Malmsteen


E-----------------|-----------------|-----------------|-----------------|
B-----------------|-----------------|-----------------|-----------------|
G-----------------|-----------------|-----------------|-----------------|
D-----------------|---7-5-3---------|-----------------|---7-5-3---------|
A---3-7-3---5-7-5-|-3-------7-5-----|---3-7-3---5-7-5-|-3-------7-5-----|
E-5-------7-------|-------------8-7-|-5-------7-------|-------------8-7-|

E-----------------|-----------------|-----------------|------------10-12|
B-----------------|-----------------|-----------------|--------9-12-----|
G-----------------|-----------------|-----------------|-------9---------|
D-----------------|-----------------|-------------7---|---6-9-----------|
A---4-7-4---5-8-5-|-----8-------7---|-----8-5-------6-|-7---------------|
E-5-------5-------|-3-7---7-3-8---8-|-4-7-----8-5-----|-----------------|

E-----------------|-----------------|-----------------|-----------------|
B-----------------|---10-8-6--------|-----------------|---10-8-6--------|
G---5-9-5---7-9-7-|-5--------9-7----|---5-9-5---7-9-7-|-5--------9-7----|
D-7-------9-------|-------------10-9|-7-------9-------|-------------10-9|
A-----------------|-----------------|-----------------|-----------------|
E-----------------|-----------------|-----------------|-----------------|

E-----------------|-----7-5---------|-----------------|-----------------|
B---------10-8----|---------8-6-----|-----------------|-----------------|
G---6-9-6-----10-9|-6-7---------9-7-|-54-------------|-----5-------4---|
D-7---------------|-----------------|-----7-5-4-5-7-3-|---5-------3-----|
A-----------------|-----------------|-----------------|-7-----7-5-----5-|
E-----------------|-----------------|-----------------|-----------------|

E-----------------|-----------------|-----------------|-----------------|
B-----------------|-----------------|-----------------|-------3-------5-|
G-----2-------0---|-----------------|---------------5-|-----4-------5---|
D---2-------0-----|-----3-------3---|-----3-----2-5---|---3-------5-----|
A-3-----3-2-----2-|---3-------3-----|---2---2-3-------|-5-------7-------|
E-----------------|-5-----5-4-----4-|-3---------------|-----------------|

E-----------------|-----------------|---8-7-5---------|---7-5-3---------|
B-------6---------|---8-5-----6-----|---------8-6-----|-6-------7-5-4-0-|
G-----5-----8-5---|-0-----5-0---7-4-|-5-----------9-5-|-----------------|
D---7-----4-----7-|-----------------|-----------------|-----------------|
A-8---------------|-----------------|-----------------|-----------------|
E-----------------|-----------------|-----------------|-----------------|

E---5-3-1---------|---3-1-0---------|-----------------|-----------5-8---|
B-5-------5-3-----|-3-------3-1-----|---6-5-3---------|---------7-----7-|
G-------------6-2-|-------------4-0-|-5-------5-4-----|-----5-8---------|
D-----------------|-----------------|-------------7-5-|-4-7-------------|
A-----------------|-----------------|-----------------|-----------------|
E-----------------|-----------------|-----------------|-----------------|

E-8-3-------------|-7-3-------------|---8-7-6-5-4-3-2-|-----------------|
B-----5-----------|-----------------|-----------------|-6-5-4-3---------|
G-------5---------|-----7-4---------|-----------------|---------6-5-4-3-|
D---------5-2-----|---------5-0-----|-----------------|-----------------|
A-------------3---|-------------2---|-3---------------|-----------------|
E---------------3-|---------------3-|-----------------|-----------------|

E-----------------|-----------------|-----------------|-----------------|
B-----------------|-----------------|-----------------|-----------------|
G-----------------|-----------------|-----------------|-----------------|
D-7-6-5-4---------|-----7-5---5-3-0-|-----------5-3-0-|-----------5-3-0-|
A---------8-7-6-5-|-3-7-----2-------|-3-7---7-2-------|-3-7---7-2-------|
E-----------------|-----------------|-----3-----------|-----3-----------|

E-----------------|-----------------|-----------------|-----------------|
B-----------------|-----------------|-----------------|-----------------|
G-----------------|-----------------|-----------------|-----------------|
D-----------3-----|-----------------|---5-2-----5-2---|-----------------|
A-3-7-5-3-2---5-3-|-0-3-2-0---5-2---|-3-----3-1-----1-|-0-8-3-0---7-2---|
E-----------------|---------4-----4-|-----------------|---------3-----3-|

E-----------------|-----------------|-----------------|-----------------|
B---6-------5-----|-----------------|-----------------|-----------------|
G-----5-------6---|---7-------6-----|---7-------5-----|-----------------|
D-------7-5-----5-|-----7-------5---|-----7-------7---|---8-------7-----|
A-----------------|-8-----8-7-----7-|-8-----8-6-----6-|-5---8-5-----6---|
E-5---------------|-----------------|-----------------|---------8-----8-|

E-----------------|-----------------|-----------------|-----------------|
B--11-------10----|-----------------|-----------------|-----------------|
G----10-------11--|--12-------11----|--12-------10----|-----------------|
D------12-10----10|----12-------10--|----12-------12--|--13-------12----|
A-----------------|13----13-12----12|13----13-11----11|10--13-10----11--|
E10---------------|-----------------|-----------------|---------13----13|

E--11-------10----|-----------------|---------------------|-----------------|
B----11-------12--|--13-------12----|--13-12-11-----------|-----------------|
G------12-10----10|----12-------10--|----------14-13-12-11|10-9-8-7---------|
D-----------------|13----13-12----12|10-------------------|--------11-10-9-8|
A10---------------|-----------------|---------------------|-----------------|
E-----------------|-----------------|---------------------|-----------------|

E-----------------|-----------------|---4-3-2---------|-----------------|
B-----------------|-----------------|---------6-5-4-3-|-----------------|
G-----------------|-----------------|-----------------|-6-5-4-4---------|
D-7-6-5-4---------|-----6-5---5-----|-----------------|---------7-6-5-4-|
A---------8-7-6-5-|---6---------8-5-|-3---------------|-----------------|
E-----------------|-8-------7-------|-----------------|-----------------|

E-----------------|-----------------|-----------------|-----------------|
B-----------------|-----------------|-----------------|-----------------|
G-----------------|-----------------|---1-------------|---3-------1-----|
D-3-2-1-0---------|-----3-1---1-----|-----1-----4-1---|-----3-------3-0-|
A---------4-3-2-1-|---3---------4-1-|-------3-0-----0-|-1-----4-2-------|
E-----------------|-4-------3-------|-4---------------|-----------------|

E-----------------|---------------6-|-4-1-------------|-----------------|
B-----------------|-----------5-----|-----------------|-----------------|
G---5-------3-----|-------5-----5---|-----5-1-----1---|-------------6---|
D-----5-------5---|---5-2---5-------|---------2-3---3-|---------7-8---8-|
A-3-----6-4-----4-|-----------------|-----------------|-6-4-------------|
E-----------------|-6---------------|-----------------|-----8-6---------|

E-----------------|-----------------|-----------------|-----------------|
B-----------4-8-4-|-9-5-------------|-----------------|-----------------|
G---------7-------|-----5-----------|-----------------|---6-5-3---------|
D-6-5-------------|-------6-5-6-4---|---3-6-3---4-6-4-|-3-------6-4-----|
A-----8-6---------|---------------6-|-4-------6-------|-------------8-6-|
E-----------------|-----------------|-----------------|-----------------|

E-----------------|-----------------|-----------------|-----------------|
B-----------------|-----------------|-----------------|-----------------|
G-------------4---|-----4-----------|-----------------|---8-7-5---------|
D---3-6-3---6---6-|---6---6---4-8-4-|---5-8-5---6-8-6-|-5-------8-6-----|
A-4-------4-------|-5-------6-------|-6-------8-------|-------------10-8|
E-----------------|-----------------|-----------------|-----------------|

E-----------------|-----------------|-----------------|-----------------|
B-----------------|-----------------|-----------------|-----------------|
G-------------6---|-----6-----------|---8------10-----|--10------11-8---|
D---5-8-5---8---8-|---8---8---6-10-6|-----10-----11-8-|----12---------8-|
A-6-------6-------|-7-------8-------|-9-----9-8-------|11----119-------|
E-----------------|-----------------|-----------------|-----------------|

E-----------------|-------------7-11|-----------------|-------------4-7-|
B-----------------|-----------------|-----------------|-----------------|
G---9-------------|---------8-11----|---6-------------|---------4-8-----|
D-----11-8--------|-------9---------|-----8-5---------|-------6---------|
A-9--------9-7----|---6-9-----------|-6-------6-4-----|---2-6-----------|
E--------------9-6|-7---------------|-------------6-3-|-4---------------|

E-----------------|-----------------|-----------------|-----------------|
B-----------------|-----------------|-----------------|-----------------|
G-----------------|---4-9-4---5-9-5-|---6-11-6--8-11-8|--8-13-8---9-15-9|
D---6-9-6---7-9-7-|-6-------7-------|-8-------9-------|10------11-------|
A-7-------9-------|-----------------|-----------------|-----------------|
E-----------------|-----------------|-----------------|-----------------|

E--------------------|---------------------|--------------------|-----------------|
B--------------------|---------------------|--------------------|-----------------|
G--11-16-11—-13-16-13|---12-15-12--11-16-11|--10-13-10--9-14-9--|--8-11-8---7-12-7|
D13--------14--------|-14--------13--------|12--------11--------|10-------9-------|
A--------------------|---------------------|--------------------|-----------------|
E--------------------|---------------------|--------------------|-----------------|

E-----------------|------------------|-----------------|-----------------|
B-----------------|------------------|-----------------|-----------------|
G---6-9-6---5-10-5|------------------|-----------------|-----------------|
D-8-------7-------|--10-13-10--9-14-9|--8-11-8---7-12-7|-7-12-7-7-13-7---|
A-----------------|12--------11------|10-------9-------|8------8---------|
E-----------------|------------------|-----------------|-----------------|

E-------------13-16|--------------------|---------------12-16-|---------------------|
B------------------|--------------------|-----12-17-----------|--13-17-13--15-17-15-|
G--------13-16-----|--14-19-14--14-20-14|----------13-16------|14--------16---------|
D----9-14----------|15--------15--------|14-18----------------|---------------------|
A7-11--------------|--------------------|---------------------|---------------------|
E------------------|--------------------|---------------------|---------------------|

E--17-15-13----------|--------------------|--17-15-13----------|--15-13-12----------|
B13--------17-15-----|--13-17-13--15-17-15|13--------17-15-----|15--------15-13-----|
G---------------17-16|14--------16--------|---------------18-14|---------------16-12|
D--------------------|--------------------|--------------------|--------------------|
A--------------------|--------------------|--------------------|--------------------|
E--------------------|--------------------|--------------------|--------------------|

E--13-12-10-----------|--12-10-8------------|--10-8-7-------------|--10-8-7---------|
B13--------13-12------|12-------12-10-------|10-------10-8--------|10------10-8-----|
G---------------14-10-|--------------13-9---|--------------10-9---|------------10-9-|
D---------------------|---------------------|---------------------|-----------------|
A---------------------|---------------------|---------------------|-----------------|
E---------------------|---------------------|---------------------|-----------------|

E---8-------------|-8-5-------------|-7-4-------------|---5-4-3---------|
B-----10-7--------|-----------------|-----------------|---------7-6-5-4-|
G-8--------8-5----|-----9-5---------|-----7-4---------|-----------------|
D--------------7--|---------7-2-----|---------6-0-----|-----------------|
A----------------6|-------------3-0-|-----------------|-----------------|
E-----------------|-----------------|-------------7-4-|-5---------------|

E-----------------|-----------------|-----------------|-----------------|
B-----------------|-----------------|-----------------|-----------------|
G-7-6-5-4---------|-----------------|-----------------|-----------------|
D---------8-7-6-5-|-4-3-2-1---------|-----3-2---2-----|-----------2-----|
A-----------------|---------5-4-3-2-|---3---------5-2-|---3-2-5-3-----2-|
E-----------------|-----------------|-5-------4-------|-5-----------4---|

E-----------------|-----------------|-----------------|-----------------9-12-17|
B-----------------|-----------------|-----------------|----------------------14|
G-----------------|-----------------|-----------------|------------9-14--------|
D-----------2-----|-----------2-----|-----------2-----|-------7-11-----------14|
A---3-2-5-3-----5-|---3-2-5-3-----2-|---3-2-5-3-----2-|-0-4-7------------------|
E-5-----------4---|-5-----------4---|-5-----------4---|------------------------|

 
»
Tvoje obľúbené položky
Tvoje obľúbené položky
»
Nové albumy interpreta
Nové albumy interpreta
VINYL Malmsteen Yngwie Rising force-hq/coloured- [vinyl]
VINYL Rising
force-hq/c
oloured-
[vinyl]
CD Malmsteen Yngwie Fire & ice -expanded-
CD Fire & ice
-expanded-
CD Malmsteen Yngwie J. Concerto suite for..
CD Concerto
suite
for..
CD Malmsteens Rising Force Marching out
CD Marching
out
CD Malmsteen Yngwie J. Eclipse
CD Eclipse
CD Malmsteen Yngwie J. Trial by fire-live
CD Trial by
fire-live
»
Najnovšie videá
Najnovšie videá

Yngwie Malmsteen - Paganini's 4th Violin

Steve Vai - Paganini 5th Caprice.wmv

Paganini - Caprice No. 5 - Guitar (Yngwi

Steve Vai Vs Eugene Nicolo Paganini,

PAGANINI - CAPRICE 5 - Metal Guitar Vers

Yngwie Malmsteen - Trilogy Suite Op. 5

»
Najnavštevovanejšie piesne
Najnavštevovanejšie piesne



home | interpreti | register piesní | cd & dvd shop | pripomienky/nápady | kontakt | ochrana údajov | inzercia

TOPlist