Interpol

piesne (51)

  texty (37) / preklady (3)
  akordy (0) / taby (11)
  noty (0) / slideshow (0)

články (26)
fotogaléria
diskusia
videá
diskografia
v obchode
odkazy
koncerty
sťahuj



pridaj vlastný článok

Interpol:
Interpol naplánovali na srpen album, uvádí jej singl "The Rover" - Vydáno: 14.06.2018 17:54 v sekci Audio - Ondřej Kocáb SDÍLET: Uložiť Inter... - musicserver.cz


Interpol:
Kapela Interpol streamuje album El Pintor - Americká kapela Interpol sprístupnila prostredníctvom webstránky www.npr.org na vypo...


Interpol:
Interpol plánujú návrat - Interpol plánujú svoj očakávaný návrat na hudobnú scénu. Vystúpia počas NME Awa... - ZST


Paul Banks:
Paul Banks: Ztotožňuji se s přístupem Davida Lynche - banks2.jpg Paul Banks, inspirativní a výrazná hudební osobnost poslední deká... - rockandpop.cz


Paul Banks:
Po Paulu Banksovi pátral v Roxy Interpol - 06. 02. 2013 | redakce Naposledy byl spatřen 5.2. ve večerních hodiná... - ireport.cz


Paul Banks:
Paul Banks sólově je jen chudý bratr Interpol - Frontman kapely Interpol, kytarista a zpěvák Paul Banks vydal pod svým jménem druhé ... - ireport.cz


Alabama:
Sú známe nominácie na NME Awards - The Rolling Stones majú šancu presadiť sa v kategóriách Najlepší hudobný film, Na...


Interpol:
Audiotip: Julian Plenti, alias Paula Bankse z Interpol, je zpět - muzikus.cz


Interpol:
Paul Banks z Interpol vydá letos novou sólovku - musicserver.cz


Interpol:
Paul Banks z Interpol to podruhé zkusí sólově - muzikus.cz


 

Interpol

Fanúšikov: 1



A B C Č D E F G H CH I J K L Ľ M N O P Q R S Š T U V W X Y Z Ž



ako:
Interpol - Pda
Interpol - Pda

tlač

edituj
Pesničku videlo 1594 návštevníkov.

Kvalita tabov : bez hodnotenia
Hodnotilo ľudí: 0 ohodnoť aj ty
Prispievateľ:

TAMARA

Intro
Moderately Fast Rock Q=142
4/4
Gtrs I, II
Wx4
|--------|
|--------|
|--------|
|--------|
|--------|
|--------|


Verse 1
B5 Bm6 D B5 Bm6 Bm7 B5
4/4
Gtr I
|-----------------|-----------------|-----------------|-------------------|
|-----------------|-----------------|-----------------|-------------------|
|-----------------|-----------------|-4-4-4-4-4-4-4-4-|--4--4-4-4-4-4-4-4-|
|-4-4-4-4-4-4-4-4-|-4-4-4-4-4-4-4-4-|-----------------|-------------------|
|-2-2-2-2-2-2-2-2-|-2-2-2-2-5-5-5-5-|-----------------|-------------------|
|-----------------|-----------------|-----------------|-------------------|
|
| Gtr II
| E E E E E E E E E E E E E E E E E E E E E E E E +E E E E E E E E
|-----------------|-----------------|-----------------|-------------------|
|-----------------|-----------------|-----------------|-------------------|
|-----------------|-----------------|-----------------|-----2-2-2-4-4-4-4-|
|-4-4-4-4-4-4-4-4-|-4-4-4-4-4-4-4-4-|-4-4-4-4-4-4-4-4-|-(4)-4-4-4-4-4-4-4-|
|-2-2-2-2-2-2-2-2-|-2-2-2-2-5-5-5-5-|-2-2-2-2-2-2-2-2-|-(2)-2-2-2-2-2-2-2-|
|-----------------|-----------------|-----------------|-------------------|


Gadd9 Dmaj7 G Dmaj7
E E E E E E E E E E E E E E E E E E E E E E E E E E E E E E E E
|-----------------|-------------------|-----------------|--------------------|
|-----------------|-------------------|-----------------|--------------------|
|-2-2-2-2-2-2-2-2-|--2--2-2-2-2-2-2-2-|-4-4-4-4-4-4-4-4-|--4--4-4-4-4-4-4-4--|
|-----------------|-------------------|-----------------|--------------------|
|-----------------|-------------------|-----------------|--------------------|
|-----------------|-------------------|-----------------|--------------------|
|
| E E E E E E E E +E E E E E E E E E E E E E E E E +E E E E E E E E
|---------------2-|-(2)-2-2-2-2-2-2-2-|---------------2-|-(2)-2-2-2-2-2-2-2--|
|---------------2-|-(2)-2-2-2-2-2-2-2-|---------------2-|-(2)-2-2-2-2-2-2-2--|
|---------------2-|-(2)-2-2-2-2-2-2-2-|---------------2-|-(2)-2-2-2-2-2-2-2--|
|---------------0-|-(0)-0-0-0-0-0-0-0-|---------------0-|-(0)-0-0-0-0-0-0-0--|
|-5-5-5-5-5-5-5---|-------------------|-5-5-5-5-5-5-5---|--------------------|
|-3-3-3-3-3-3-3---|-------------------|-3-3-3-3-3-3-3---|--------------------|


B5 D
|-----------------|-----------------|
|-7-7-7-7-7-7-7-7-|-7-7-7-7-7-7-7-7-|
|-----------------|-----------------|
|-----------------|-----------------|
|-----------------|-----------------|
|-----------------|-----------------|
|
|-----------------|-----------------|
|-----------------|-----------------|
|-----------------|-----------------|
|-4-4-4-4-4-4-4-4-|-4-4-4-4-4-4-4-4-|
|-2-2-2-2-2-2-2-2-|-2-2-2-2-5-5-5-5-|
|-----------------|-----------------|



B5 Bm B5 Bm7 B5
|--------------------------|---------------------------|
|-/12-12-12-12-12-12-12-12-|-12--12-12-12-12-12-12-12--|
|--------------------------|---------------------------|
|--------------------------|---------------------------|
|--------------------------|---------------------------|
|--------------------------|---------------------------|
|
|--------------------------|---------------------------|
|---------3----------------|---------------------------|
|---------4-----4--------2-|-(2)--2--2--2--4--4--4--4--|
|---4--4--4-----4--4--4--4-|-(4)--4--4--4--4--4--4--4--|
|---2--2--2-----2--2--2--2-|-(2)--2--2--2--2--2--2--2--|
|--------------------------|---------------------------|


Gadd9 Dmaj7
|-------------------------|--------------------------|
|-10-10-10-10-10-10-10-10-|-10--10-10-10-10-10-10-10-|
|-------------------------|--------------------------|
|-------------------------|--------------------------|
|-------------------------|--------------------------|
|-------------------------|--------------------------|
|
|
|-----------------------2-|-(2)--2--2--2--2--2--2--2-|
|-----------------------2-|-(2)--2--2--2--2--2--2--2-|
|-----------------------2-|-(2)--2--2--2--2--2--2--2-|
|-----------------------0-|-(0)--0--0--0--0--0--0--0-|
|--5--5--5--5--5--5--5----|--------------------------|
|--3--3--3--3--3--3--3----|--------------------------|


G Dmaj7
|-----------------|--------------------|
|-8-8-8-8-8-8-8-8-|--8--8-8-8-8-8-8-8--|
|-----------------|--------------------|
|-----------------|--------------------|
|-----------------|--------------------|
|-----------------|--------------------|
|
|
|---------------2-|-(2)-2-2-2-2-2-2-2--|
|---------------2-|-(2)-2-2-2-2-2-2-2--|
|---------------2-|-(2)-2-2-2-2-2-2-2--|
|---------------0-|-(0)-0-0-0-0-0-0-0--|
|-5-5-5-5-5-5-5---|--------------------|
|-3-3-3-3-3-3-3---|--------------------|



Pre Chorus 1
Slower Q=140
Bm D
||--------------------------|---------------------------|
||o--7--7--7--7--7--7--7--7-|--7--7--7---7--7--7--7--7--|
||--------------------------|---------------------------|
||--------------------------|---------------------------|
||o-------------------------|---------------------------|
||--------------------------|---------------------------|
|
|
||--------------------------|---------------------------|
||o-------------------------|---------------------------|
||--------------------------|---------------------------|
||--12-12-12-12-12-12-12-12-|-12-12-12-/19-19-19-19-19-|
||o-------------------------|---------------------------|
||--------------------------|---------------------------|


Dmaj7 Dadd4
|-------------------------|---------------------------|
|-------------------------|---------------------------|
|--7--7--7--7--7--7--7--7-|--7--7--7---7--7--7--7--7--|
|-------------------------|---------------------------|
|-------------------------|---------------------------|
|-------------------------|---------------------------|
|
|
|-------------------------|---------------------------|
|-------------------------|---------------------------|
|-------------------------|---------------------------|
|-11-11-11-11-11-11-11-11-|-11-11-11-/17-17-17-17-17-|
|-------------------------|---------------------------|
|-------------------------|---------------------------|


Gmaj7 D
|-----------------|-----------------|
|-7-7-7-7-7-7-7-7-|-7-7-7-7-7-7-7-7-|
|-----------------|-----------------|
|-----------------|-----------------|
|-----------------|-----------------|
|-----------------|-----------------|
|
|
|-----------------|-----------------|
|-----------------|-----------------|
|-----------------|-----------------|
|-9-9-9-9-9-9-9-9-|-9-9-9-9-9-9-9-9-|
|-----------------|-----------------|
|-----------------|-----------------|


Gmaj7 Dadd4
|-------------------------|---------------------------||
|--8--8--8--8--8--8--8--8-|--8--8--8--8--8--8--8--8--o||
|-------------------------|---------------------------||
|-------------------------|---------------------------||
|-------------------------|--------------------------o||
|-------------------------|---------------------------||
|
|
|-------------------------|---------------------------||
|-------------------------|-12-12-12-12-12-12-12-12--o||
|-11-11-11-11-11-11-11-11-|---------------------------||
|-------------------------|---------------------------||
|-------------------------|--------------------------o||
|-------------------------|---------------------------||


Chorus
E6 Bsus2
3x
||------------------|-----------------|-----------------|------------------||
||o-----------------|-----------------|-----------------|-----------------o||
||--6-6-6-6-6-6-6-6-|-6-6-6-6-6-6-6-6-|-6-6-6-6-6-6-6-6-|-6-6-6-6-6-6-6-6--||
||--9-9-9-9-9-9-9-9-|-9-9-9-9-9-9-9-9-|-9-9-9-9-9-9-9-9-|-9-9-9-9-9-9-9-9--||
||o-----------------|-----------------|-----------------|-----------------o||
||------------------|-----------------|-----------------|------------------||
|
|
||------------------|-----------------|-----------------|---------7-7-7----||
||o-----------------|-----------------|-----------------|---------9-9-9---o||
||------------------|-----------------|-6-6-6-6-6-6-6-6-|-6-6-6-6-6-6-6-6--||
||--9-9-9-9-9-9-9-9-|-9-9-9-9-9-9-9-9-|-9-9-9-9-9-9-9-9-|-9-9-9-9-------9--||
||o-7-7-7-7-7-7-7-7-|-7-7-7-7-7-7-7-7-|-----------------|-----------------o||
||------------------|-----------------|-----------------|------------------||


Emaj7 B Ebm6
||------------------|-----------------|-----------------|------------------||
||o-----------------|-----------------|-----------------|-----------------o||
||--8-8-8-8-8-8-8-8-|-8-8-8-8-8-8-8-8-|-8-8-8-8-8-8-8-8-|-8-8-8-8-8-8-8-8--||
||--9-9-9-9-9-9-9-9-|-9-9-9-9-9-9-9-9-|-9-9-9-9-9-9-9-9-|-9-9-9-9-9-9-9-9--||
||o-7-7-7-7-7-7-7-7-|-7-7-7-7-7-7-7-7-|-x-x-x-x-x-x-x-x-|-6-6-6-6-6-6-6-6-o||
||------------------|-----------------|-7-7-7-7-7-7-7-7-|------------------||
|
|
||------------------|-----------------|-----------------|------------------||
||o-----------------|-----------------|-----------------|-----------------o||
||--8-8-8-8-8-8-8-8-|-8-8-8-8-8-8-8-8-|-8-8-8-8-8-8-8-8-|-8-8-8-8-8-8-8-8--||
||--9-9-9-9-9-9-9-9-|-9-9-9-9-9-9-9-9-|-9-9-9-9-9-9-9-9-|-9-9-9-9-9-9-9-9--||
||o-7-7-7-7-7-7-7-7-|-7-7-7-7-7-7-7-7-|-x-x-x-x-x-x-x-x-|-6-6-6-6-6-6-6-6-o||
||------------------|-----------------|-7-7-7-7-7-7-7-7-|------------------||



|-------------|-----------------|
|-------------|-----------------|
|-8-----------|-----------------|
|-9-----------|-----------------|
|-6-----------|-----------------|
|-------------|-----------------|
|
|
|-------------|-----------------|
|-------------|-----------------|
|-8-----------|-----------------|
|-9-----------|-9-9-9-9-9-9-9--|
|-6-----------|-7-7-7-7-6-6-6--|
|-------------|-----------------|



Verse 2
B5 D B5 Bm7 B5
4/4
Gtr I
|-----------------|-----------------|-----------------|-------------------|
|-----------------|-----------------|-----------------|-------------------|
|-----------------|-----------------|-4-4-4-4-4-4-4-4-|--4--4-4-4-4-4-4-4-|
|-4-4-4-4-4-4-4-4-|-4-4-4-4-4-4-4-4-|-----------------|-------------------|
|-2-2-2-2-2-2-2-2-|-2-2-2-2-5-5-5-5-|-----------------|-------------------|
|-----------------|-----------------|-----------------|-------------------|
|
| Gtr II
|-----------------|-----------------|-----------------|-------------------|
|-----------------|-----------------|-----------------|-------------------|
|-----------------|-----------------|---------------2-|-(2)-2-2-2-4-4-4-4-|
|-4-4-4-4-4-4-4-4-|-4-4-4-4-4-4-4-4-|-4-4-4-4-4-4-4-4-|-(4)-4-4-4-4-4-4-4-|
|-2-2-2-2-2-2-2-2-|-2-2-2-2-5-5-5-5-|-2-2-2-2-2-2-2-2-|-(2)-2-2-2-2-2-2-2-|
|-----------------|-----------------|-----------------|-------------------|


Gadd9 Dmaj7 G Dmaj7
|-----------------|-------------------|-----------------|--------------------|
|-----------------|-------------------|-----------------|--------------------|
|-2-2-2-2-2-2-2-2-|--2--2-2-2-2-2-2-2-|-4-4-4-4-4-4-4-4-|--4--4-4-4-4-4-4-4--|
|-----------------|-------------------|-----------------|--------------------|
|-----------------|-------------------|-----------------|--------------------|
|-----------------|-------------------|-----------------|--------------------|
|
|
|---------------2-|-(2)-2-2-2-2-2-2-2-|---------------2-|-(2)-2-2-2-2-2-2-2--|
|---------------2-|-(2)-2-2-2-2-2-2-2-|---------------2-|-(2)-2-2-2-2-2-2-2--|
|---------------2-|-(2)-2-2-2-2-2-2-2-|---------------2-|-(2)-2-2-2-2-2-2-2--|
|---------------0-|-(0)-0-0-0-0-0-0-0-|---------------0-|-(0)-0-0-0-0-0-0-0--|
|-5-5-5-5-5-5-5---|-------------------|-5-5-5-5-5-5-5---|--------------------|
|-3-3-3-3-3-3-3---|-------------------|-3-3-3-3-3-3-3---|--------------------|



B5 D
|-----------------|-----------------|
|-7-7-7-7-7-7-7-7-|-7-7-7-7-7-7-7-7-|
|-----------------|-----------------|
|-----------------|-----------------|
|-----------------|-----------------|
|-----------------|-----------------|
|
|
|-----------------|-----------------|
|-----------------|-----------------|
|-----------------|-----------------|
|-4-4-4-4-4-4-4-4-|-4-4-4-4-4-4-4-4-|
|-2-2-2-2-2-2-2-2-|-2-2-2-2-5-5-5-5-|
|-----------------|-----------------|



B5 Bm7 B5
|--------------------------|---------------------------|
|-/12-12-12-12-12-12-12-12-|-12--12-12-12-12-12-12-12--|
|--------------------------|---------------------------|
|--------------------------|---------------------------|
|--------------------------|---------------------------|
|--------------------------|---------------------------|
|
|
|--------------------------|---------------------------|
|--------------------------|---------------------------|
|---------4--------------2-|-(2)--2--2--2--4--4--4--4--|
|---4--4--4-----4--4--4--4-|-(4)--4--4--4--4--4--4--4--|
|---2--2--2-----2--2--2--2-|-(2)--2--2--2--2--2--2--2--|
|--------------------------|---------------------------|


Gadd9 Dmaj7
|-------------------------|--------------------------|
|-10-10-10-10-10-10-10-10-|-10--10-10-10-10-10-10-10-|
|-------------------------|--------------------------|
|-------------------------|--------------------------|
|-------------------------|--------------------------|
|-------------------------|--------------------------|
|
|
|-----------------------2-|-(2)--2--2--2--2--2--2--2-|
|-----------------------2-|-(2)--2--2--2--2--2--2--2-|
|-----------------------2-|-(2)--2--2--2--2--2--2--2-|
|-----------------------0-|-(0)--0--0--0--0--0--0--0-|
|--5--5--5--5--5--5--5----|--------------------------|
|--3--3--3--3--3--3--3----|--------------------------|


G Dmaj7
|-----------------|--------------------|
|-8-8-8-8-8-8-8-8-|--8--8-8-8-8-8-8-8--|
|-----------------|--------------------|
|-----------------|--------------------|
|-----------------|--------------------|
|-----------------|--------------------|
|
|
|---------------2-|-(2)-2-2-2-2-2-2-2--|
|---------------2-|-(2)-2-2-2-2-2-2-2--|
|---------------2-|-(2)-2-2-2-2-2-2-2--|
|---------------0-|-(0)-0-0-0-0-0-0-0--|
|-5-5-5-5-5-5-5---|--------------------|
|-3-3-3-3-3-3-3---|--------------------|


Pre Chorus 2
Bm D
||--------------------------|---------------------------|
||o--7--7--7--7--7--7--7--7-|--7--7--7---7--7--7--7--7--|
||--------------------------|---------------------------|
||--------------------------|---------------------------|
||o-------------------------|---------------------------|
||--------------------------|---------------------------|
|
|
||--------------------------|---------------------------|
||o-------------------------|---------------------------|
||--------------------------|---------------------------|
||--12-12-12-12-12-12-12-12-|-12-12-12-/19-19-19-19-19-|
||o-------------------------|---------------------------|
||--------------------------|---------------------------|


Dmaj7 Dadd4
|-------------------------|---------------------------|
|-------------------------|---------------------------|
|--7--7--7--7--7--7--7--7-|--7--7--7---7--7--7--7--7--|
|-------------------------|---------------------------|
|-------------------------|---------------------------|
|-------------------------|---------------------------|
|
|
|-------------------------|---------------------------|
|-------------------------|---------------------------|
|-------------------------|---------------------------|
|-11-11-11-11-11-11-11-11-|-11-11-11-/17-17-17-17-17-|
|-------------------------|---------------------------|
|-------------------------|---------------------------|


Gmaj7 D
|-----------------|-----------------|
|-7-7-7-7-7-7-7-7-|-7-7-7-7-7-7-7-7-|
|-----------------|-----------------|
|-----------------|-----------------|
|-----------------|-----------------|
|-----------------|-----------------|
|
|
|-----------------|-----------------|
|-----------------|-----------------|
|-----------------|-----------------|
|-9-9-9-9-9-9-9-9-|-9-9-9-9-9-9-9-9-|
|-----------------|-----------------|
|-----------------|-----------------|


Gmaj7 Dadd4
|-------------------------|---------------------------||
|--8--8--8--8--8--8--8--8-|--8--8--8--8--8--8--8--8--o||
|-------------------------|---------------------------||
|-------------------------|---------------------------||
|-------------------------|--------------------------o||
|-------------------------|---------------------------||
|
|
|-------------------------|---------------------------||
|-------------------------|-12-12-12-12-12-12-12-12--o||
|-11-11-11-11-11-11-11-11-|---------------------------||
|-------------------------|---------------------------||
|-------------------------|--------------------------o||
|-------------------------|---------------------------||


Chorus 2
E5 B7sus2
|-----------------|-----------------|-----------------|--------------------|
|-----------------|-----------------|-----------------|--------------------|
|-----------------|-----------------|-6-6-6-6-6-6-6-6-|--6--6-6-6-6-6-6-6--|
|-9-9-9-9-9-9-9-9-|-9-9-9-9-9-9-9-9-|-9-9-9-9-9-9-9-9-|--9--9-9-9-9-9-9-9--|
|-7-7-7-7-7-7-7-7-|-7-7-7-7-7-7-7-7-|-----------------|--------------------|
|-----------------|-----------------|-----------------|--------------------|
|
|
|-----------------|-----------------|-----------------|-----------7-7-7----|
|-----------------|-----------------|-----------------|-----------9-9-9----|
|-----------------|-----------------|-6-6-6-6-6-6-6-6-|--6--6-6-6-6-6-6-6--|
|-9-9-9-9-9-9-9-9-|-9-9-9-9-9-9-9-9-|-9-9-9-9-9-9-9-9-|--9--9-9-9-------9--|
|-7-7-7-7-7-7-7-7-|-7-7-7-7-7-7-7-7-|-----------------|--------------------|
|-----------------|-----------------|-----------------|--------------------|
|
| Gtr III
|
|-----------------|-----------------|-----------------|--------------------|
|-----------------|-----------------|-----------------|--------------------|
|-----------------|-----------------|-----------------|--------------------|
|-----------------|-----------------|---7---7-7-7-7---|--------------------|
|-----------------|-----------------|-0-4---4-4-4-4-0-|-(0)-0-0-0-0-0-0-0--|
|-----------------|-----------------|-----------------|--------------------|


E6 B7sus2
|-----------------|-----------------|-----------------|--------------------|
|-----------------|-----------------|-----------------|--------------------|
|-6-6-6-6-6-6-6-6-|-6-6-6-6-6-6-6-6-|-6-6-6-6-6-6-6-6-|--6--6-6-6-6-6-6-6--|
|-9-9-9-9-9-9-9-9-|-9-9-9-9-9-9-9-9-|-9-9-9-9-9-9-9-9-|--9--9-9-9-9-9-9-9--|
|-----------------|-----------------|-----------------|--------------------|
|-----------------|-----------------|-----------------|--------------------|
|
|
|-----------------|-----------------|-----------------|-----------7-7-7----|
|-----------------|-----------------|-----------------|-----------9-9-9----|
|-----------------|-----------------|-6-6-6-6-6-6-6-6-|--6--6-6-6-6-6-6-6--|
|-9-9-9-9-9-9-9-9-|-9-9-9-9-9-9-9-9-|-9-9-9-9-9-9-9-9-|--9--9-9-9-------9--|
|-7-7-7-7-7-7-7-7-|-7-7-7-7-7-7-7-7-|-----------------|--------------------|
|-----------------|-----------------|-----------------|--------------------|
|
|
|-----------------|-----------------|-----------------|--------------------|
|-----------------|-----------------|-----------------|--------------------|
|-----------------|-----------------|-----------------|--------------------|
|-----------------|-----------------|---7---7-7-7-----|--------------------|
|-----------------|-----------------|-0-4---4-4-4-0-0-|-(0)-0-0-0-0-0-0-0--|
|-----------------|-----------------|-----------------|--------------------|


E6 B7sus2
|-----------------|-----------------|-----------------|------------------|
|-----------------|-----------------|-----------------|------------------|
|-9-6-6-6-6-6-6-6-|-6-6-6-6-6-6-6-6-|-6-6-6-6-6-6-6-6-|-6-6-6-6-6-6-6-6--|
|-9-9-9-9-9-9-9-9-|-9-9-9-9-9-9-9-9-|-9-9-9-9-9-9-9-9-|-9-9-9-9-9-9-9-9--|
|-----------------|-----------------|-----------------|------------------|
|-----------------|-----------------|-----------------|------------------|
|
|
|-----------------|-----------------|-----------------|---------7-7-7----|
|-----------------|-----------------|-----------------|---------9-9-9----|
|-----------------|-----------------|-6-6-6-6-6-6-6-6-|-6-6-6-6-6-6-6-6--|
|-9-9-9-9-9-9-9-9-|-9-9-9-9-9-9-9-9-|-9-9-9-9-9-9-9-9-|-9-9-9-9-------9--|
|-7-7-7-7-7-7-7-7-|-7-7-7-7-7-7-7-7-|-----------------|------------------|
|-----------------|-----------------|-----------------|------------------|
|
|
|-----------------|-----------------|-----------------|------------------|
|-----------------|-----------------|-----------------|------------------|
|-----------------|-----------------|-----------------|------------------|
|-----------------|-----------------|-7-7---7-7-7-7-7-|-7-7-7-7-7-7-7-7--|
|-----------------|-----------------|-4-4---4-4-4-4-4-|-4-4-4-4-4-4-4-4--|
|-----------------|-----------------|-----------------|------------------|


Emaj7 B Ebm6
||------------------|-----------------|-----------------|------------------||
||o-----------------|-----------------|-----------------|-----------------o||
||--8-8-8-8-8-8-8-8-|-8-8-8-8-8-8-8-8-|-8-8-8-8-8-8-8-8-|-8-8-8-8-8-8-8-8--||
||--9-9-9-9-9-9-9-9-|-9-9-9-9-9-9-9-9-|-9-9-9-9-9-9-9-9-|-9-9-9-9-9-9-9-9--||
||o-7-7-7-7-7-7-7-7-|-7-7-7-7-7-7-7-7-|-x-x-x-x-x-x-x-x-|-6-6-6-6-6-6-6-6-o||
||------------------|-----------------|-7-7-7-7-7-7-7-7-|------------------||
|
|
||------------------|-----------------|-----------------|------------------||
||o-----------------|-----------------|-----------------|-----------------o||
||--8-8-8-8-8-8-8-8-|-8-8-8-8-8-8-8-8-|-8-8-8-8-8-8-8-8-|-8-8-8-8-8-8-8-8--||
||--9-9-9-9-9-9-9-9-|-9-9-9-9-9-9-9-9-|-9-9-9-9-9-9-9-9-|-9-9-9-9-9-9-9-9--||
||o-7-7-7-7-7-7-7-7-|-7-7-7-7-7-7-7-7-|-x-x-x-x-x-x-x-x-|-6-6-6-6-6-6-6-6-o||
||------------------|-----------------|-7-7-7-7-7-7-7-7-|------------------||


Interlude
N.C.
|------------------|-----------------|-----------------|------------------|
|------------------|-----------------|-----------------|------------------|
|-8----------------|-----------------|-----------------|------------------|
|-9----------------|-----------------|-----------------|------------------|
|-6----------------|-----------------|-----------------|------------------|
|------------------|-----------------|-----------------|------------------|
|
|
|------------------|-----------------|-----------------|------------------|
|------------------|-----------------|-----------------|------------------|
|-8-8-8--8-8-8-8-8-|-8-8-8-8-8-8-8-8-|-8-8-8-8-8-8-8-8-|-8-8-8-8-8-8-8-8--|
|------------------|-----------------|-----------------|------------------|
|------------------|-----------------|-----------------|------------------|
|------------------|-----------------|-----------------|------------------|


Slower Q=138
B Emaj7
Gtr II
|-----------------|-----------------|
|-----------------|-----------------|
|-8-8-8-8-8-8-8-8-|-8-8-8-8-8-8-8-8-|
|-9-9-9-9-9-9-9-9-|-9-9-9-9-9-9-9-9-|
|-----------------|-7-7-7-7-7-7-7-7-|
|-----------------|-----------------|


Bass Solo
Emaj7 B Emaj7
3x
||------------------|-----------------|-----------------|------------------||
||o-9-9-9-9-9-9-9-9-|-9-9-9-9-9-9-9-9-|-7-7-7-7-7-7-7-7-|-----------------o||
||--8-8-8-8-8-8-8-8-|-8-8-8-8-8-8-8-8-|-8-8-8-8-8-8-8-8-|-8-8-8-8-8-8-8-8--||
||------------------|-----------------|-9-9-9-9-9-9-9-9-|-9-9-9-9-9-9-9-9--||
||o-----------------|-----------------|-----------------|-7-7-7-7-7-7-7-7-o||
||------------------|-----------------|-----------------|------------------||


Emaj7 B Emaj7
Gtr I
|-----------------|-----------------|-----------------|------------------|
|-----------------|-----------------|-----------------|------------------|
|-----------------|-----------------|-----8-8-----8---|-----8-8-----8----|
|-----------------|-----------------|-9-9-----9-9---9-|-9-9-----9-9---9--|
|-----------------|-----------------|-----------------|------------------|
|-----------------|-----------------|-----------------|------------------|
|
| Gtr II
|-----------------|-----------------|-----------------|------------------|
|-9-9-9-9-9-9-9-9-|-9-9-9-9-9-9-9-9-|-7-7-7-7-7-7-7-7-|------------------|
|-8-8-8-8-8-8-8-8-|-8-8-8-8-8-8-8-8-|-8-8-8-8-8-8-8-8-|-8-8-8-8-8-8-8-8--|
|-----------------|-----------------|-9-9-9-9-9-9-9-9-|-9-9-9-9-9-9-9-9--|
|-----------------|-----------------|-----------------|-7-7-7-7-7-7-7-7--|
|-----------------|-----------------|-----------------|------------------|


Emaj7 B Emaj7
|-----------------|-----------------|-----------------|--------------------|
|-----------------|-----------------|-----------------|--------------------|
|-----8-8-----8---|-----8-8-----8---|-----8-8-----8---|-------8-8-----8-8--|
|-9-9-----9-9---9-|-9-9-----9-9---9-|-9-9-----9-9---9-|-(9)-9-----9-9------|
|-----------------|-----------------|-----------------|--------------------|
|-----------------|-----------------|-----------------|--------------------|
|
|
|-----------------|-----------------|-----------------|--------------------|
|-9-9-9-9-9-9-9-9-|-9-9-9-9-9-9-9-9-|-7-7-7-7-7-7-7-7-|--------------------|
|-8-8-8-8-8-8-8-8-|-8-8-8-8-8-8-8-8-|-8-8-8-8-8-8-8-8-|--8--8-8-8-8-8-8-8--|
|-----------------|-----------------|-9-9-9-9-9-9-9-9-|--9--9-9-9-9-9-9-9--|
|-----------------|-----------------|-----------------|--7--7-7-7-7-7-7-7--|
|-----------------|-----------------|-----------------|--------------------|


Outro
Slower Q=136
Emaj7 Emaj9 B Emaj7 Emaj9
|-----------------|-------------------|-----------------|--------------------|
|-----------------|-----------7-------|-----------------|-----------7--------|
|-----8-8-----8---|-------8-----8---8-|-----8-8-----8---|-------8-----8---8--|
|-9-9-----9-9---9-|-(9)-9---9-----9---|-9-9-----9-9---9-|-(9)-9---9-----9----|
|-----------------|-------------------|-----------------|--------------------|
|-----------------|-------------------|-----------------|--------------------|
|
|
|-----------------|-------------------|-----------------|--------------------|
|-9-9-9-9-9-9-9-9-|--9--9-9-9-9-9-9-9-|-7-7-7-7-7-7-7-7-|--9--9-9-9-9-9-9-9--|
|-8-8-8-8-8-8-8-8-|--8--8-8-8-8-8-8-8-|-8-8-8-8-8-8-8-8-|--8--8-8-8-8-8-8-8--|
|-----------------|-------------------|-----------------|--------------------|
|-----------------|-------------------|-----------------|--------------------|
|-----------------|-------------------|-----------------|--------------------|


Emaj7/G# B Emaj7
|-----------------|-----------------|-----------------|------------------|
|-----------------|-----------------|-----------------|------------------|
|-----8-8-----8---|---8-8-8-8-8-8-8-|-8---8---8---8---|-8---8---8---8----|
|-9-9-----9-9---9-|-9---------------|---9---9---9---9-|---9---9---9---9--|
|-----------------|-----------------|-----------------|------------------|
|-----------------|-----------------|-----------------|------------------|
|
|
|-----------------|-----------------|-----------------|------------------|
|-9-9-9-9-9-9-9-9-|-9-9-9-9-9-9-9-9-|-7-7-7-7-7-7-7-7-|-9-9-9-9-9-9-9-9--|
|-8-8-8-8-8-8-8-8-|-8-8-8-8-8-8-8-8-|-8-8-8-8-8-8-8-8-|-8-8-8-8-8-8-8-8--|
|-----------------|-----------------|-----------------|------------------|
|-----------------|-----------------|-----------------|------------------|
|-----------------|-----------------|-----------------|------------------|


Emaj7 B Emaj7 Emaj9
|-----------------|-----------------|-----------------|--------------------|
|-----------------|-----------------|-----------------|-----------7--------|
|-8---8---8---8---|-8---8---8---8---|-----8-8-----8---|-------8-----8---8--|
|---9---9---9---9-|---9---9---9---9-|-9-9-----9-9---9-|-(9)-9---9-----9----|
|-----------------|-----------------|-----------------|--------------------|
|-----------------|-----------------|-----------------|--------------------|
|
|
|-----------------|-----------------|-----------------|--------------------|
|-9-9-9-9-9-9-9-9-|-9-9-9-9-9-9-9-9-|-7-7-7-7-7-7-7-7-|--9--9-9-9-9-9-9-9--|
|-8-8-8-8-8-8-8-8-|-8-8-8-8-8-8-8-8-|-8-8-8-8-8-8-8-8-|--8--8-8-8-8-8-8-8--|
|-----------------|-----------------|-----------------|--------------------|
|-----------------|-----------------|-----------------|--------------------|
|-----------------|-----------------|-----------------|--------------------|


Emaj7/G# Emaj9 B Emaj7 Emaj9
|-----------------|-----------------|-----------------|------------------|
|-----------------|---------7-------|-----------------|-------7----------|
|-----8-8-----8---|---8-8-----8---8-|-----8-8-----8---|-8-8-----8-----8--|
|-9-9-----9-9---9-|-9-----9-----9---|-9-9-----9-9---9-|-----9-----9-9----|
|-----------------|-----------------|-----------------|------------------|
|-----------------|-----------------|-----------------|------------------|
|
|
|-----------------|-----------------|-----------------|------------------|
|-9-9-9-9-9-9-9-9-|-9-9-9-9-9-9-9-9-|-7-7-7-7-7-7-7-7-|-9-9-9-9-9-9-9-9--|
|-8-8-8-8-8-8-8-8-|-8-8-8-8-8-8-8-8-|-8-8-8-8-8-8-8-8-|-8-8-8-8-8-8-8-8--|
|-----------------|-----------------|-----------------|------------------|
|-----------------|-----------------|-----------------|------------------|
|-----------------|-----------------|-----------------|------------------|


Emaj7 B Emaj7
|-----------------|-----------------|-----------------|------------------|
|-----------------|-----------------|-----------------|------------------|
|-8-8-8-8-8-8-8-8-|-8-8-8-8-8-8-8-8-|-8-8-8-8-8-8-8-8-|-8-8-8-8-8-8-8-8--|
|-9-9-9-9-9-9-9-9-|-9-9-9-9-9-9-9-9-|-9-9-9-9-9-9-9-9-|-9-9-9-9-9-9-9-9--|
|-----------------|-----------------|-----------------|------------------|
|-----------------|-----------------|-----------------|------------------|
|
|
|-----------------|-----------------|-----------------|------------------|
|-9-9-9-9-9-9-9-9-|-9-9-9-9-9-9-9-9-|-7-7-7-7-7-7-7-7-|-9-9-9-9-9-9-9-9--|
|-8-8-8-8-8-8-8-8-|-8-8-8-8-8-8-8-8-|-8-8-8-8-8-8-8-8-|-8-8-8-8-8-8-8-8--|
|-----------------|-----------------|-----------------|------------------|
|-----------------|-----------------|-----------------|------------------|
|-----------------|-----------------|-----------------|------------------|


Emaj7/G# B Emaj7
|-----------------|-----------------|-----------------|------------------|
|-----------------|-----------------|-----------------|------------------|
|-8-8-8-8-8-8-8-8-|-8-8-8-8-8-8-8-8-|-8-8-8-8-8-8-8-8-|-8-8-8-8-8-8-8-8--|
|-9-9-9-9-9-9-9-9-|-9-9-9-9-9-9-9-9-|-9-9-9-9-9-9-9-9-|-9-9-9-9-9-9-9-9--|
|-----------------|-----------------|-----------------|------------------|
|-----------------|-----------------|-----------------|------------------|
|
|
|-----------------|-----------------|-----------------|------------------|
|-9-9-9-9-9-9-9-9-|-9-9-9-9-9-9-9-9-|-7-7-7-7-7-7-7-7-|-9-9-9-9-9-9-9-9--|
|-8-8-8-8-8-8-8-8-|-8-8-8-8-8-8-8-8-|-8-8-8-8-8-8-8-8-|-8-8-8-8-8-8-8-8--|
|-----------------|-----------------|-----------------|------------------|
|-----------------|-----------------|-----------------|------------------|
|-----------------|-----------------|-----------------|------------------|


Emaj7 B Emaj7 Emaj9
|-----------------|-------------------|-----------------|------------------|
|-----------------|-------------------|-----------------|---------7--------|
|-8-8-8-8-8-8-8-8-|--8--8-8-8-8-8-8-8-|-----8-8-----8---|-----8-----8---8--|
|-9-9-9-9-9-9-9-9-|--9--9-9-9-9-9-9-9-|-9-9-----9-9---9-|-9-9---9-----9----|
|-----------------|-------------------|-----------------|------------------|
|-----------------|-------------------|-----------------|------------------|
|
|
|-----------------|-------------------|-----------------|------------------|
|-9-9-9-9---9---9-|-(9)-9---9---9-9-9-|-7-7-7-7-7-7-7-7-|-9-9-9-9-9-9-9-9--|
|-8-8-8-----------|-------------------|-----------------|------------------|
|-----------------|-------------------|-----------------|------------------|
|-----------------|-------------------|-----------------|------------------|
|-----------------|-------------------|-----------------|------------------|


Emaj7/G# Emaj9 B Emaj7 Emaj9
|-----------------|-----------------|-----------------|------------------|
|-----------------|---------7-------|-----------------|---------7--------|
|-----8-8-----8---|-----8-----8---8-|-----8-8-----8---|-----8-----8---8--|
|-9-9-----9-9---9-|-9-9---9-----9---|-9-9-----9-9---9-|-9-9---9-----9----|
|-----------------|-----------------|-----------------|------------------|
|-----------------|-----------------|-----------------|------------------|
|
|
|-----------------|-----------------|-----------------|------------------|
|-9-9-9-9-9-9-9-9-|-9-9-9-9-9-9-9-9-|-7-7-7-7-7-7-7-7-|-9-9-9-9-9-9-9-9--|
|-----------------|-----------------|-----------------|------------------|
|-----------------|-----------------|-----------------|------------------|
|-----------------|-----------------|-----------------|------------------|
|-----------------|-----------------|-----------------|------------------|


Emaj7

|----------|------------|------------|--------*|
|-9--------|-(9)--------|-(9)--------|-(9)----*|
|----------|------------|------------|--------*|
|----------|------------|------------|--------*|
|----------|------------|------------|--------*|
|----------|------------|------------|--------*|
|
|
|----------|------------|------------|--------*|
|-9--------|-(9)--------|-(9)--------|-(9)----*|
|-8--------|-(8)--------|-(8)--------|-(8)----*|
|-9--------|-(9)--------|-(9)--------|-(9)----*|
|-7--------|-(7)--------|-(7)--------|-(7)----*|
|----------|------------|------------|--------*|

 
»
Tvoje obľúbené položky
Tvoje obľúbené položky
»
Nové albumy interpreta
Nové albumy interpreta
3xVINYL Interpol Our love to admire (10th anniversary) (remastered) [vinyl]
3xVINYL Our love
to admire
(10th
anniversar
y)
(remastere
d) [vinyl]
VINYL Interpol El pintor remixes lp rsd [vinyl]
VINYL El pintor
remixes lp
rsd
[vinyl]
CD Interpol El pintor
CD El pintor
VINYL Interpol El pintor lp [vinyl]
VINYL El pintor
lp [vinyl]
CD Interpol Our love to admire
CD Our love
to admire
CD Interpol Interpol
CD Interpol
»
Najnovšie videá
Najnovšie videá

Interpol - PDA [Official Video]

Interpol - PDA ( Turn On The Bright Ligh

Interpol - PDA

Interpol PDA Outro

Interpol - PDA subtiulada (inglés - esp

Interpol - PDA

»
Najnavštevovanejšie piesne
Najnavštevovanejšie piesne



home | interpreti | register piesní | cd & dvd shop | pripomienky/nápady | kontakt | ochrana údajov | inzercia

TOPlist