Tomáš Linka

piesne (9)

  texty (8) / preklady (0)
  akordy (6) / taby (1)
  noty (0) / slideshow (0)

články (22)
fotogaléria
diskusia
videá
diskografia
v obchode
odkazy
koncerty
sťahuj



pridaj vlastný článok

Tomáš Linka:
"40 odstínů country" Tomáše Linky přináší poctivou muziku i nekvalitní
texty
- "40 odstínů country" Tomáše Linky přináší poctivou muziku i nekvalitní texty Vy... - musicserver.cz


Bluegrass Cwrkot:
6. ročník festivalu Zámocké Country - Zámocké Country 2014 (6. ročník) 6.-8. jún 2014. Amfiteáter Nové ZámkyCamping:... - zamockecountry.sk


Bokomara:
LODENICA: Z country festivalu na výlet za Báthoryčkou - PIEŠŤANY: Z country festivalu na výlet za Báthoryčkou Piešťa ny 28. augusta (TAS...


Čechomor:
Sviatočný deň 29. august: spríjemni si posledný prázdninový víkend
festivalom
- Sviatočný deň 29. august: spríjemni si posledný prázdninový víkend festivalom ...


Bokomara:
Lodenica: Obľúbené hudobné skupiny na jubileu nesmú chýbať - Lodenica: Obľúbené hudobné skupiny na jubileu nesmú chýbať Festival Zlatá Stud...


Čechomor:
Desiata jubilejná Zlatá Studňa Lodenica len za 500,-Sk. - Desiata jubilejná Zlatá Studňa LODENICA len za 500,-Sk. Záujem o jubilejný 10. ro...


Bg Time:
Program Lodenice 2008 - PIEŠTANY – Tento rok sa po jubilejný 10. krát v posledný augustový víkend otvoria ...


Banjo Band:
Lodenica 2006 - Program - Lodenica 2006 - Program Hudobný program je tento rok nabitý hviezdami zo slovenska a...


Wabi Daněk:
Stodola: Slunce (déšť), seno a kupa vzpomínek - musicserver.cz


Anna K.:
Michal Tučný a Hoštice - Michal Tučný a Hoštice Když se řekne v Česku Hoštice u Volyně, vybaví se vá...


 

Tomáš Linka

Fanúšikov: 1



A B C Č D E F G H CH I J K L Ľ M N O P Q R S Š T U V W X Y Z Ž



ako:
Tomáš Linka - Paní má se má
Tomáš Linka - Paní má se má

tlač

edituj
Rok vzniku: 1980
V originále: Rocky Mountain High
Pesničku videlo 3571 návštevníkov.

Kvalita tabov : bez hodnotenia
Hodnotilo ľudí: 0 ohodnoť aj ty
Prispievateľ:

petr554
  *** Autor textu: Novotný Petr (cz) Denver John (en) *** Autor hudby: John Denver
Paní má se má                        
Tab podle originálu http://youtu.be/eOB4VdlkzO4

Ladění (DADGHe)

(Capo 2)

Takt 2/2

Legend
L - tied note
x - dead note
h - hammer on/pull off
b - bend
s - slide
~ - vibrato
g - ghost note
> - accentuated note
t - trill
M - palm mute
. - staccato
P - popping (bass)
S - slapping (bass)
+ - tapping
W - wide vibrato
< - fade in
w - whammy bar
= - tremolo picking
v - brush up
^ - brush down
V - pick stroke up
n - pick stroke down

n V n V V V V
E ||-------2--2--------2--2----------------------------|
B ||-------3--3--------3--3----------------------------|
G ||o------2-----------------------------2>-4----------|
D ||o--------------------------------------------------|
A ||---------------------------------------------------|
D ||-------------------------0>------------------------|

V n V n V n V n V
-----2-----------0-----0----------------------------|
-----3----------------------------------------------|
--------------------------2>----------2>------------|
--------------------------------0>-4--------4>------|
----------------------------------------------------|
----------------------------------------------------|

n V n V n V n V n V n V
--------------0--0--0--0----------------------------|
--------------0--0--0--0----------------------------|
--------------0--0--0--0----------------------------|
--------------0--0--0--0--2h-0----------------------|
--------------------------------0h-2----------------|
--------------------------------0h-2----------------|

n V V V V
---------------------------||----------------------------||
--0--0--0--0---------------||--0--0--0--0----------------||
--0--0--0--0--0--0--0--0--o||--0--0--0--0--0--0--0--0----||
--0--0--0--0--0--0--0--0--o||--0--0--0--0--0--0--0--0----||
--5--5--5--5--7--7--7--7---||--5--5--5--5--7--7--7--7----||
--5--5--5--5--7--7--7--7---||--5--5--5--5--7--7--7--7----||

V n V n V n V n V n V n
-------2--2--------2--2----------------------------|
-------3--3--------3--3----------------------------|
o------2-----------------------------2>-4----------|
o--------------------------------------------------|
---------------------------------------------------|
-------------------------0>------------------------|

V n V V V V
-----2-----------0-----0----------------------------|
-----3----------------------------------------------|
--------------------------2>----------2>------------|
--------------------------------0>-4--------4>------|
----------------------------------------------------|
----------------------------------------------------|

V n V n V n V n V n V
--------------0--0--0--0----------------------------|
--------------0--0--0--0----------------------------|
--------------0--0--0--0----------------------------|
--------------0--0--0--0--2h-0----------------------|
--------------------------------0h-2----------------|
--------------------------------0h-2----------------|

n V n V
----------------------------|
--1--1--1--1--2--2--2--2----|
--0--0--0--0--2--2--2--2----|
--2--2--2--2--2--2--2--2----|
--3--3--3--3--0--0--0--0----|
----------------------------|

V V V V n
--------2--2--------2--2----------------------------|
--------3--3--------3--3----------------------------|
--------2-----------------------------2>-4----------|
----------------------------------------------------|
----------------------------------------------------|
--------------------------0>------------------------|

V n V n V n V n V n V
-----2-----------0-----0----------------------------|
-----3----------------------------------------------|
--------------------------2>----------2>------------|
--------------------------------0>-4--------4>------|
----------------------------------------------------|
----------------------------------------------------|

n V V V V
--------------0--0--0--0----------------------------|
--------------0--0--0--0----------------------------|
--------------0--0--0--0----------------------------|
--------------0--0--0--0--2h-0----------------------|
--------------------------------0h-2----------------|
--------------------------------0h-2----------------|

V n V n V n V
----------------------------|
--0--0--0--0----------------|
--0--0--0--0--0--0--0--0----|
--0--0--0--0--0--0--0--0----|
--5--5--5--5--7--7--7--7----|
--5--5--5--5--7--7--7--7----|

n V n V n V n V n V n V n V
--------2--2--------2--2----------------------------|
--------3--3--------3--3----------------------------|
--------2-----------------------------2>-4----------|
----------------------------------------------------|
----------------------------------------------------|
--------------------------0>------------------------|

n V n V n V n V n V n V n V
--2--2-----------0-----0----------------------------|
--3--3----------------------------------------------|
--------------------------2>----------2>------------|
--------------------------------0>-4--------4>------|
----------------------------------------------------|
----------------------------------------------------|


--------------0--0--0--0----------------------------|
--------------0--0--0--0----------------------------|
--------------0--0--0--0----------------------------|
--------------0--0--0--0--2h-0----------------------|
--------------------------------0h-2----------------|
--------------------------------0h-2----------------|

n V n V n V n V
----------------------------|
--1--1--1--1--2--2--2--2----|
--0--0--0--0--2--2--2--2----|
--2--2--2--2--2--2--2--2----|
--3--3--3--3--0--0--0--0----|
----------------------------|

n V n V n V n V
--------2--2--------2--2----------------------------|
--------3--3--------3--3----------------------------|
--------2-----------------------------2>-4----------|
----------------------------------------------------|
----------------------------------------------------|
--------------------------0>------------------------|

n V n V n
--2--2-----------0-----0----------------------------|
--3--3----------------------------------------------|
--------------------------2>----------2>------------|
--------------------------------0>-4--------4>------|
----------------------------------------------------|
----------------------------------------------------|

V n V n V n V n V n V
--------------0--0--0--0----------------------------|
--------------0--0--0--0----------------------------|
--------------0--0--0--0----------------------------|
--------------0--0--0--0--2h-0----------------------|
--------------------------------0h-2----------------|
--------------------------------0h-2----------------|


---------------------------||----------------------------|
--0--0--0--0---------------||--0--0--0--0----------------|
--0--0--0--0--0--0--0--0--o||--0--0--0--0--0--0--0--0----|
--0--0--0--0--0--0--0--0--o||--0--0--0--0--0--0--0--0----|
--5--5--5--5--7--7--7--7---||--5--5--5--5--7--7--7--7----|
--5--5--5--5--7--7--7--7---||--5--5--5--5--7--7--7--7----|


--3--3--3--3--3--3--3--3----|--0--0--0--0--0--0--0--0----|
--0--0--0--0--0--0--0--0----|--2--2--2--2--2--2--2--2----|
--0--0--0--0--0--0--0--0----|--2--2--2--2--2--2--2--2----|
--0--0--0--0--0--0--0--0----|--2--2--2--2--2--2--2--2----|
--5--5--5--5--5--5--5--5----|--0--0--0--0--0--0--0--0----|
--5--5--5--5--5--5--5--5----|----------------------------|

n V n V V
--2>----------0>-2--2--2>---|--------2>------------------|
--3>----------3>----3--3>---|--------3>-------3>---------|
--2>----------2>----2--2>---|--------2>-------2>---------|
-----0--0--0----------------|--0--0-----0--0-----0--0----|
-----0--0--0----------------|--0--0-----0--0-----0--0----|
-----0--0--0----------------|--0--0-----0--0-----0--0----|

V V V n V n V n V
--3--3--3--3--3--3--3--3----|--0--0--0--0--0--0--0--0----|
--0--0--0--0--0--0--0--0----|--2--2--2--2--2--2--2--2----|
--0--0--0--0--0--0--0--0----|--2--2--2--2--2--2--2--2----|
--0--0--0--0--0--0--0--0----|--2--2--2--2--2--2--2--2----|
--5--5--5--5--5--5--5--5----|--0--0--0--0--0--0--0--0----|
--5--5--5--5--5--5--5--5----|----------------------------|

n V n V V n V n V n V
-----10>------10>------10>--|--------10>10>10>10>--------|
-----10>------10>------10>--|--------10>10>10>10>--------|
-----11>------11>------11>--|--------11>11>11>11>--------|
--0-----0--0-----0--0-------|--0--0--------------0--0----|
--0-----0--0-----0--0-------|--0--0--------------0--0----|
--0-----0--0-----0--0-------|--0--0--------------0--0----|

n V n V
--3--3--3--3--3--3--3--3----|--0--0--0--0--0--0--0--0----|
--0--0--0--0--0--0--0--0----|--2--2--2--2--2--2--2--2----|
--0--0--0--0--0--0--0--0----|--2--2--2--2--2--2--2--2----|
--0--0--0--0--0--0--0--0----|--2--2--2--2--2--2--2--2----|
--5--5--5--5--5--5--5--5----|--0--0--0--0--0--0--0--0----|
--5--5--5--5--5--5--5--5----|----------------------------|

n V n V n V n V
--2--2--------3.----5.------------------|
--3--3----------------------------------|
--2--2----------------------------------|
--------------------------0-------------|
--------------------------0-------------|
--------------------------0--0--2.-4.---|

n V n V n V n V
--7--------7L-7-----10------------------------------|
--------------------8L------------------------------|
--------------------------------------------7-------|
----------------------------------------------------|
----------------------------------------------------|
--------------------------5--------5L-5-------------|

n V n V
-----10-------10----10-10---------------------------|
--8--8--------8-----8--8----------------------------|
-----------------------------7--------7-----7--7----|
----------------------------------------------------|
----------------------------------------------------|
----------------------------------------------------|

n V n V n V n V n V n V
--10-10-10-10L10-10-10------------------------------|
--8--8--8--8L-8--8--8-------------------------------|
--------------------------7--7--7--7L-7--7--7-------|
----------------------------------------------------|
----------------------------------------------------|
----------------------------------------------------|

n
--10-10----10-10------------------------------------|
--8--8-----8--8-------------------------------------|
--------------------------7--7-----7--7-------------|
----------------------------------------------------|
----------------------------------------------------|
----------------------------------------------------|

V n V n V n V n V n V n V n V
--------2--2--------2--2----------------------------|
--------3--3--------3--3----------------------------|
--------2-----------------------------2>-4----------|
----------------------------------------------------|
----------------------------------------------------|
--------------------------0>------------------------|


--2--2-----------0-----0----------------------------|
--3--3----------------------------------------------|
--------------------------2>----------2>------------|
--------------------------------0>-4--------4>------|
----------------------------------------------------|
----------------------------------------------------|


--------------0--0--0--0----------------------------|
--------------0--0--0--0----------------------------|
--------------0--0--0--0----------------------------|
--------------0--0--0--0--2h-0----------------------|
--------------------------------0h-2----------------|
--------------------------------0h-2----------------|


----------------------------|
--0--0--0--0----------------|
--0--0--0--0--0--0--0--0----|
--0--0--0--0--0--0--0--0----|
--5--5--5--5--7--7--7--7----|
--5--5--5--5--7--7--7--7----|

n V n V V
--------------0--0--0--0----------------------------|
--------------0--0--0--0----------------------------|
--------------0--0--0--0----------------------------|
--------------0--0--0--0--2h-0----------------------|
--------------------------------0h-2----------------|
--------------------------------0h-2----------------|

V V V n V n V n V
----------------------------|--2--2--2--2--2-----2-------|
--0--0--0--0----------------|--3--3--3--3--3-----3-------|
--0--0--0--0--0--0--0--0----|--2--2--2--2--2-----2-------|
--0--0--0--0--0--0--0--0----|--0--0--0--0--0-----0L-0----|
--5--5--5--5--7--7--7--7----|----------------------------|
--5--5--5--5--7--7--7--7----|----------------------------|

n V n V
--2--2--2-----2--2--2--2----|--3--3--3--3--3--3--3--3----|
--3--3--3-----3--3--3--3----|--0--0--0--0--0--0--0--0----|
--2--2--2-----2--2--2--2----|--0--0--0--0--0--0--0--0----|
--0--0--0-----0--0--0--0----|--0--0--0--0--0--0--0--0----|
----------------------------|--5--5--5--5--5--5--5--5----|
----------------------------|--5--5--5--5--5--5--5--5----|


--0--0--0--0--0--0--0--0----|--2>----------0>-2--2--2>---|
--2--2--2--2--2--2--2--2----|--3>----------3>----3--3>---|
--2--2--2--2--2--2--2--2----|--2>----------2>----2--2>---|
--2--2--2--2--2--2--2--2----|-----0--0--0----------------|
--0--0--0--0--0--0--0--0----|-----0--0--0----------------|
----------------------------|-----0--0--0----------------|


--------2>------------------|--3--3--3--3--3--3--3--3----|
--------3>-------3>---------|--0--0--0--0--0--0--0--0----|
--------2>-------2>---------|--0--0--0--0--0--0--0--0----|
--0--0-----0--0-----0--0----|--0--0--0--0--0--0--0--0----|
--0--0-----0--0-----0--0----|--5--5--5--5--5--5--5--5----|
--0--0-----0--0-----0--0----|--5--5--5--5--5--5--5--5----|


--0--0--0--0--0--0--0--0----|-----10>------10>------10>--|
--2--2--2--2--2--2--2--2----|-----10>------10>------10>--|
--2--2--2--2--2--2--2--2----|-----11>------11>------11>--|
--2--2--2--2--2--2--2--2----|--0-----0--0-----0--0-------|
--0--0--0--0--0--0--0--0----|--0-----0--0-----0--0-------|
----------------------------|--0-----0--0-----0--0-------|


--------10>10>10>10>--------|--3--3--3--3--3--3--3--3----|
--------10>10>10>10>--------|--0--0--0--0--0--0--0--0----|
--------11>11>11>11>--------|--0--0--0--0--0--0--0--0----|
--0--0--------------0--0----|--0--0--0--0--0--0--0--0----|
--0--0--------------0--0----|--5--5--5--5--5--5--5--5----|
--0--0--------------0--0----|--5--5--5--5--5--5--5--5----|


--0--0--0--0--0--0--0--0----|--2--2--------3.----5.------------------|
--2--2--2--2--2--2--2--2----|--3--3----------------------------------|
--2--2--2--2--2--2--2--2----|--2--2----------------------------------|
--2--2--2--2--2--2--2--2----|--------------------------0-------------|
--0--0--0--0--0--0--0--0----|--------------------------0-------------|
----------------------------|--------------------------0--0--2.-4.---|


--7--------7L-7-----10------------------------------|
--------------------8L------------------------------|
--------------------------------------------7-------|
----------------------------------------------------|
----------------------------------------------------|
--------------------------5--------5L-5-------------|


-----10-------10----10-10---------------------------|
--8--8--------8-----8--8----------------------------|
-----------------------------7--------7-----7--7----|
----------------------------------------------------|
----------------------------------------------------|
----------------------------------------------------|


--10-10-10-10----10-10------------------------------|
--8--8--8--8-----8--8-------------------------------|
--------------------------7--7--7--7L-7--7--7-------|
----------------------------------------------------|
----------------------------------------------------|
----------------------------------------------------|


--10-10----10-10------------------------------------||
--8--8-----8--8-------------------------------------||
--------------------------7--7-----7--7-------------||
----------------------------------------------------||
----------------------------------------------------||
----------------------------------------------------||


-------2--2--------2--2----------------------------|
-------3--3--------3--3----------------------------|
o------2-----------------------------2>-4----------|
o--------------------------------------------------|
---------------------------------------------------|
-------------------------0>------------------------|


-----2-----------0-----0----------------------------|
-----3----------------------------------------------|
--------------------------2>----------2>------------|
--------------------------------0>-4--------4>------|
----------------------------------------------------|
----------------------------------------------------|


--------------0--0--0--0----------------------------|
--------------0--0--0--0----------------------------|
--------------0--0--0--0----------------------------|
--------------0--0--0--0--2h-0----------------------|
--------------------------------0h-2----------------|
--------------------------------0h-2----------------|


---------------------------|||
--0--0--0--0---------------|||
--0--0--0--0--0--0--0--0--o|||
--0--0--0--0--0--0--0--0--o|||
--5--5--5--5--7--7--7--7---|||
--5--5--5--5--7--7--7--7---|||


v pdf:
https://www.dropbox.com/s/c5a0i3ke0zaleep/
Pan%C3%AD%20m%C3%A1%20se%20m%C3%A1%20%28Rocky%20Mountain%20High%29.pdf

 
»
Tvoje obľúbené položky
Tvoje obľúbené položky
»
Nové albumy interpreta
Nové albumy interpreta
2xCD Linka Tomas To nejlepsi. 40 odstinu country
2xCD To
nejlepsi.
40 odstinu
country

»
Najnovšie videá
Najnovšie videá

Fesaci - Pani ma se ma

Feci - Pan m se m

Tom Linka-Pan m se m

Pan m se mm - Tom Linka / smlk /

Tom Linka + Star fry - Pan m se m

PDY - Pan m se m (Tom Linka a Fe
»
Najnavštevovanejšie piesne
Najnavštevovanejšie piesne
Divnej smích - akordy a text

Paní má se má - akordy a text

Když tě zítra nepotkám - text

Nech bejt Joe - akordy a text

Paní má se má - taby

Dialog - akordy a text

Tisíc mílí nikam - akordy a text

Bídnej stár - text

Jsou mý - akordy a text




home | interpreti | register piesní | cd & dvd shop | pripomienky/nápady | kontakt | ochrana údajov | inzercia

TOPlist