Pavel Bobek

piesne (61)

  texty (55) / preklady (0)
  akordy (47) / taby (5)
  noty (0) / slideshow (0)

články (55)
fotogaléria
diskusia
videá
diskografia
v obchode
odkazy
koncerty
sťahuj



pridaj vlastný článok

Pavel Bobek:
Zomrel Pavel Bobek :( - Vo veku 76 rokov dnes zomrel český spevák Pavel Bobek. Známy hudobník posledný raz ...


Pavel Bobek:
Nautilus Zdeňka Rytíře (online album) - Hodnotenie: 10 / 10 Pošli na Facebook Pošli na Twitter Pošli na Go... - server.sk


Pavel Bobek:
Vážná nemoc Pavla Bobka: Rozkládá se mu kůže! - 8. února 2013 9:57 Legenda české country Pavel Bobek (75) má v posledních letech v... - super.cz


Pavel Bobek:
Pavel Bobek v Malostranské besedě - PR Podruhé v lednu vás zveme do Malostranské besedy. Ve ... - folktime.cz


Pavel Bobek:
Žlutý pes, Petr Kolář nebo Pavel Bobek zahrají na Slavnostech svijanského
piva
- ireport.cz


Pavel Bobek:
Vyšlo nové album Pavla Bobka – Kruhy - countryworld.cz


Pavel Bobek:
Pavel Bobek: Zpívat lidem mě dělá mladším - novinky.cz


Pavel Bobek:
Pavel Bobek zpívá o smíření se životem - novinky.cz


Pavel Bobek:
Pavel Bobek vydáva tento týždeň nový album Kruhy a chystá sa na veľké
koncerty k 75. narodeninám.
- Na album zaradil coververzie piesní E. Claptona, G. Cladwella, M. Hollidaya, Ch. Corne...


Pavel Bobek:
Pavel Bobek změnil názor a vydá nové album s názvem Kruhy - ceskenoviny.cz


 

Pavel Bobek

Fanúšikov: 3



A B C Č D E F G H CH I J K L Ľ M N O P Q R S Š T U V W X Y Z Ž



ako:
Pavel Bobek - Veď mě dál cesto má (simple ver)
Pavel Bobek - Veď mě dál cesto má (simple ver)

tlač

edituj
Rok vzniku: 1974
V originále: Country Roads
Pesničku videlo 4331 návštevníkov.

Kvalita tabov : bez hodnotenia
Hodnotilo ľudí: 0 ohodnoť aj ty
Prispievateľ:

petr554
  *** Autor textu: Vladimír Poštulka *** Autor hudby: John Denver, Mary Catherine Danoff, Bill Danoff
                                                                             
Gtr 2 (jednoduchý doprovod)

82 BPM
Takt 4/4 (2/4)

A A/E A A/E A
E S S E S S E S S E S S E S S E S S E S S E S S
E||-------------------------------|-------------------------------|
B||-------2-------2------2------2-|-------2-------2------2------2-|
G||-----2-------2------2------2---|-----2-------2------2------2---|
D||-------------------------------|-------------------------------|
A||--0--------------0------0------|--0--------------0------0------|
E||---------0---------------------|---------0---------------------|


A/E A A/E A/F# A/C# A/F#
E S S E S S E S S E S S E S S E S S E S S E S S
--------------------------------|------------------------------------|
-------2-------2------2-------2-|---------2--------2--------2------2-|
-----2-------2------2-------2---|-------2--------2--------2------2---|
--------------------------------|------------------------------------|
--0--------------0--------------|-----------4------------------------|
---------0--------------0-------|--2-----------------2--------2------|


E D A A/E
E S S E S S E S S E S S E S S E E E S S E S S
------------------------------|---------------|-----------------|
-------0------0------0------0-|-------3-------|-------2-------2-|
-----1------1------1------1---|-----2---------|-----2-------2---|
------------------------------|--0------------|-----------------|
---------2-------------2------|---------4--2--|--0--------------|
--0-------------0-------------|---------------|---------0-------|


A A/E A A/E A A/E
E S S E S S E S S E S S E S S E S S
-----------------|--------------------------------|
-------2-------2-|-------2-------2------2-------2-|
-----2-------2---|-----2-------2------2-------2---|
-----------------|--------------------------------|
--0--------------|--0--------------0--------------|
---------0-------|---------0--------------0-------|


A/F# A/C# A/F# E
E S S E S S E S S E S S E S S E S S E S S E S S
------------------------------------|------------------------------|
---------2--------2--------2------2-|-------0------0------0------0-|
-------2--------2--------2------2---|-----1------1------1------1---|
------------------------------------|------------------------------|
-----------4------------------------|---------2-------------2------|
--2-----------------2--------2------|--0-------------0-------------|


D A A/E A A/E A A/E
E S S E E E S S E S S E S S E S S E S S E S S
---------------|-----------------|--------------------------------|
-------3-------|-------2-------2-|-------2-------2------2-------2-|
-----2---------|-----2-------2---|-----2-------2------2-------2---|
--0------------|-----------------|--------------------------------|
---------4--2--|--0--------------|--0--------------0--------------|
---------------|---------0-------|---------0--------------0-------|


E A/F# A/C# A/F#
E S S E S S E S S E S S E S S E S S E S S E E
------------------------------|-----------------------------------|
-------0------0------0------0-|---------2--------2--------2-------|
-----1------1------1------1---|-------2--------2--------2---------|
------------------------------|-----------------------------------|
---------2-------------2------|-----------4--------------------4--|
--0-------------0-------------|--2-----------------2--------2-----|


D D/A D A A/E A
E S S E S S E S S E E E S S E S S E S S E E
------------------------------|------------------------------|
-------3-------3------3-------|-------2-------2------2-------|
-----2-------2------2---------|-----2-------2------2---------|
--0--------------0------------|------------------------2-----|
---------0--------------4--2--|--0--------------0---------0--|
------------------------------|---------0--------------------|


E D D/A D
E S S E S S E S S E E E S S E S S E S S E E
-----------------------------|------------------------------|
-------0------0------0-------|-------3-------3------3-------|
-----1------1------1---------|-----2-------2------2---------|
-----------------------2-----|--0--------------0------------|
---------2----------------4--|---------0--------------0--2--|
--0-------------0------------|------------------------------|


A A/E A A/E A A/E A A/E
E S S E S S E S S E S S E S S E S S E S S E S S
--------------------------------|--------------------------------|
-------2-------2------2-------2-|-------2-------2------2-------2-|
-----2-------2------2-------2---|-----2-------2------2-------2---|
--------------------------------|--------------------------------|
--0--------------0--------------|--0--------------0--------------|
---------0--------------0-------|---------0--------------0-------|


A/F# A/C# A/F# E
E S S E S S E S S E S S E S S E S S E S S E S S
------------------------------------|------------------------------|
---------2--------2--------2------2-|-------0------0------0------0-|
-------2--------2--------2------2---|-----1------1------1------1---|
------------------------------------|------------------------------|
-----------4------------------------|---------2-------------2------|
--2-----------------2--------2------|--0-------------0-------------|


D A A/E A A/E
E S S E E E S S E S S E S S E S S
---------------|-----------------|-----------------|
-------3-------|-------2-------2-|-------2-------2-|
-----2---------|-----2-------2---|-----2-------2---|
--0------------|-----------------|-----------------|
---------4--2--|--0--------------|--0--------------|
---------------|---------0-------|---------0-------|


A A/E A A/E A/F# A/C# A/F#
E S S E S S E S S E S S E S S E S S E S S E S S
--------------------------------|------------------------------------|
-------2-------2------2-------2-|---------2--------2--------2------2-|
-----2-------2------2-------2---|-------2--------2--------2------2---|
--------------------------------|------------------------------------|
--0--------------0--------------|-----------4------------------------|
---------0--------------0-------|--2-----------------2--------2------|


E D A A/E
E S S E S S E S S E S S E S S E E E S S E S S
------------------------------|---------------|-----------------|
-------0------0------0------0-|-------3-------|-------2-------2-|
-----1------1------1------1---|-----2---------|-----2-------2---|
------------------------------|--0------------|-----------------|
---------2-------------2------|---------4--2--|--0--------------|
--0-------------0-------------|---------------|---------0-------|


A A/E A A/E E
E S S E S S E S S E S S E S S E S S E S S E S S
--------------------------------|------------------------------|
-------2-------2------2-------2-|-------0------0------0------0-|
-----2-------2------2-------2---|-----1------1------1------1---|
--------------------------------|------------------------------|
--0--------------0--------------|---------2-------------2------|
---------0--------------0-------|--0-------------0-------------|


A/F# A/C# A/F# D D/A D
E S S E S S E S S E E E S S E S S E S S E E
-----------------------------------|------------------------------|
---------2--------2--------2-------|-------3-------3------3-------|
-------2--------2--------2---------|-----2-------2------2---------|
-----------------------------------|--0--------------0------------|
-----------4--------------------4--|---------0--------------4--2--|
--2-----------------2--------2-----|------------------------------|


A A/E A E
E S S E S S E S S E E E S S E S S E S S E E
------------------------------|-----------------------------|
-------2-------2------2-------|-------0------0------0-------|
-----2-------2------2---------|-----1------1------1---------|
------------------------2-----|-----------------------2-----|
--0--------------0---------0--|---------2----------------4--|
---------0--------------------|--0-------------0------------|


D D/A D A A/E A A/E
E S S E S S E S S E E E S S E S S E S S E S S
------------------------------|--------------------------------|
-------3-------3------3-------|-------2-------2------2-------2-|
-----2-------2------2---------|-----2-------2------2-------2---|
--0--------------0------------|--------------------------------|
---------0--------------0--2--|--0--------------0--------------|
------------------------------|---------0--------------0-------|


F#m E A/E
^ ^ v ^ ^ v ^ ^ v ^ ^ v ^ ^ v ^ ^ v ^ ^ v ^ ^ v
E S S E S S E S S E S S E S S E S S E S S E S S
--2---2-2-2--2-2-0--0-0-0--0-0-|--0---0-0-0--0-0-0--0-0-0--0-0-|
--2---2-2-2--2-2-0--0-0-0--0-0-|--2---2-2-2--2-2-2--2-2-2--2-2-|
--2---2-2-2--2-2-1--1-1-1--1-1-|--2---2-2-2--2-2-2--2-2-2--2-2-|
--4---4-4-4--4-4-2--2-2-2--2-2-|--2---2-2-2--2-2-2--2-2-2--2-2-|
--4-------4------2------2------|--0-------0------0------0------|
--2-------2------0------0------|--0-------0------0------0------|


D A E
^ ^ v ^ ^ v ^ ^ v ^ ^ v ^ ^ v ^ ^ v ^ ^ v
E S S E S S E S S E S S E S S E S S E S S E E
--2--2-2-2--2-0-0--0-0-0--0-0-|--0--0-0-0--0-0-0--0-0-------|
--3--3-3-3--3-2-2--2-2-2--2-2-|--0--0-0-0--0-0-0--0-0-------|
--2--2-2-2--2-2-2--2-2-2--2-2-|--1--1-1-1--1-1-1--1-1-------|
--0--0-0-0--0-2-2--2-2-2--2-2-|--2--2-2-2--2-2-2--2-2-------|
----------------0------0------|--2------2------2------0-----|
----------------0------0------|--0------0------0---------4--|


F#m G D A A/E
^ ^ v ^ ^ v ^ ^ v ^ ^ v ^ ^ v ^ ^ v ^ ^ v ^ ^ v
E S S E S S E S S E S S E S S E S S E S S E S S
--2---2-2-2--2-2-3--3-3-3--3-3-|--2--2-2-2--2-0-0---0-0-0--0-0-|
--2---2-2-2--2-2-3--3-3-3--3-3-|--3--3-3-3--3-2-2---2-2-2--2-2-|
--2---2-2-2--2-2-0--0-0-0--0-0-|--2--2-2-2--2-2-2---2-2-2--2-2-|
--4---4-4-4--4-4-0--0-0-0--0-0-|--0--0-0-0--0-2-2---2-2-2--2-2-|
--4-------4------2------2------|----------------0-------0------|
--2-------2------3------3------|----------------0-------0------|


E
E S S E S S E S S E S S E S S E S S H
------------------------------|-------------------------|
-------0------0------0------0-|-------0------0----------|
-----1------1------1------1---|-----1------1------------|
------------------------------|---------0---------------|
---------2-------------2------|-------------------------|
--0-------------0-------------|--0-------------0--------|


A A/E A A/E E
E S S E S S E S S E S S E S S E S S E S S E S S
|---------------------------------|------------------------------|
|--------2-------2------2-------2-|-------0------0------0------0-|
|*-----2-------2------2-------2---|-----1------1------1------1---|
|*--------------------------------|------------------------------|
|---0--------------0--------------|---------2-------------2------|
|----------0--------------0-------|--0-------------0-------------|


A/F# A/C# A/F# D D/A D
E S S E S S E S S E E E S S E S S E S S E E
-----------------------------------|------------------------------|
---------2--------2--------2-------|-------3-------3------3-------|
-------2--------2--------2---------|-----2-------2------2---------|
-----------------------------------|--0--------------0------------|
-----------4--------------------4--|---------0--------------4--2--|
--2-----------------2--------2-----|------------------------------|


A A/E A E
E S S E S S E S S E E E S S E S S E S S E E
------------------------------|-----------------------------|
-------2-------2------2-------|-------0------0------0-------|
-----2-------2------2---------|-----1------1------1---------|
------------------------2-----|-----------------------2-----|
--0--------------0---------0--|---------2----------------4--|
---------0--------------------|--0-------------0------------|


D D/A D A A/E A A/E
E S S E S S E S S E E E S S E S S E S S E S S
------------------------------|---------------------------------||
-------3-------3------3-------|-------2-------2------2-------2--||
-----2-------2------2---------|-----2-------2------2-------2---*||
--0--------------0------------|--------------------------------*||
---------0--------------0--2--|--0--------------0---------------||
------------------------------|---------0--------------0--------||


A A/E A E
E S S E S S E S S E E E S S E S S E S S E E
-------------------------------|------------------------------||
--------2-------2------2-------|-------0------0------0--------||
*-----2-------2------2---------|-----1------1------1---------*||
*------------------------------|-----------------------0-----*||
---0--------------0------0-----|---------2----------------2---||
----------0-----------------2--|--0-------------0-------------||


A A/E A
^
E S S E S S Q Q
----------------------0----||
-------2-------2------2----||
-----2-------2--------2----||
----------------------2----||
--0--------------0----0----||
---------0------------0----||

V pdf:
https://www.dropbox.com/s/frvgvlswfxkim8k/Bobek%2CPavel%20
-%20Ve%C4%8F%20m%C4%9B%20d%C3%A1l%20cesto%20m%C3%A1%20%28simple%20ver%29.pdf


Duration Legend
---------------
W - whole
H - half
Q - quarter
E - 8th
S - 16th
T - 32nd
X - 64th
. - note dotted
|-n-| - n-tuplets


Tablature Legend
----------------
L - tied note
x - dead note
g - grace note
(n) - ghost note
> - accentuded note
NH - natural harmonic
AH - artificial harmonic
TH - tapped harmonic
SH - semi harmonic
PH - pitch harmonic
h - hammer on
p - pull off
b - bend
br - bendRelease
pb - preBend
pbr - preBendRelease
brb - bendReleaseBend
\n/ - tremolo bar dip
\n - tremolo bar dive
-/n - tremolo bar Release up
/n\ - tremolo bar inverted dip
/n - tremolo bar return
-\n - tremolo bar Release down
S - shift slide
s - legato slide
/ - slide into from below or out of upwards
\ - slide into from above or out of downwards
~ - vibrato
W - wide vibrato
tr - trill
TP - tremolo picking
T - tapping
S - slap
P - pop
< - fade in
^ - brush up
v - brush down

 
»
Tvoje obľúbené položky
Tvoje obľúbené položky
»
Nové albumy interpreta
Nové albumy interpreta
8xCD Bobek Pavel Elpicka 1975-1993 box
8xCD Elpicka
1975-1993 box
5xCD Gott Karel Duety
5xCD Duety
2xCD Bobek Pavel Pratele
2xCD Pratele
2xCD+DVD Bobek Pavel V lucerne/dvd
2xCD+DVD V lucerne/dvd
2xCD Bobek Pavel Vsem, divkam../2cd
2xCD Vsem,
divkam../2cd
2xCD Bobek Pavel Kruhy rozsirena edice
2xCD Kruhy rozsirena
edice

»
Najnovšie videá
Najnovšie videá

Pavel Bobek - Ved me dal, cesto ma

Pavel Bobek - Ve m dl cesto m

Pavel Bobek - Ved m dl cesto m /

sample Pavel Bobek ved me dal cesto ma a

Pavel Bobek - Ve m dl, cesto m

Ve m dl, cesto m / P. Bobek.
»
Najnavštevovanejšie piesne
Najnavštevovanejšie piesne
Veď mě dál, cesto má - akordy a text

Lásko, mě ubývá sil - akordy a text

Můj rodný dům - akordy a text

Drž se zpátky, chlapče můj - akordy a text

S tím bláznem si nic nezačínej - akordy a text

Víc nehledám - akordy a text

Dokud budu žít - akordy a text

Veď mě dál cesto má (fingerstyle ver) - taby

Ruby, nechtěj mi lásku brát - akordy a text

Country boy 2 - akordy a text

Veď mě dál cesto má (simple ver) - taby

Vincent van Gogh - taby

A tak to půjde dál - akordy

Pojď dál a zpívej - akordy a text

Nedělní ráno - akordy a text

Dálniční hlídka - akordy a text

Vincent - akordy a text

Obludárium - akordy a text

Já ti zpívám - akordy a text

Má Dívka N. - akordy a text

viac




home | interpreti | register piesní | cd & dvd shop | pripomienky/nápady | kontakt | ochrana údajov | inzercia

TOPlist