Spirituál Kvintet

piesne (134)

  texty (124) / preklady (0)
  akordy (109) / taby (3)
  noty (1) / slideshow (0)

články (37)
fotogaléria
diskusia
videá
diskografia
v obchode
odkazy
koncerty
sťahuj



pridaj vlastný článok

Bílé Inferno:
Folkové prázdniny oznamují „snový“ výběr domácích účinkujících - Festivaly Každé setkání s Ivou Bittovou, Anetou Langerovou, Katkou García, pís... - folktime.cz


Brontosauři:
Pesničkár Honza Nedvěd stráca sluch. Hrozí mu, že ohluchne - Pesničkár Honza Nedvěd stráca sluch. Hrozí mu, že ohluchne Je psychick... - aktuality.sk


Irena Budweiserová:
Klavír, naléhavost a Spirituál kvintet - 11.11.2012 12:00, Daniel Mareš Na novou desku zpěvačky a bývalé dlouholeté ... - musicserver.cz


Spirituál Kvintet:
Pocta Petrovi je názov štvrtého ročníka country spomienkového koncertu na
speváka a skladateľa Petra Dulu (1981-2009) ktorý predčasne odišiel do
country neba. Prostredníctvom svojich piesní však zostane v srdciach svojich
fanúšikov navždy.
- Súčasťou spomienkového večera, ktorý sa odohral v Košiciach, bol aj krst novéh... - musicpress.sk


Marilyn Manson:
Nová alba: Spirituál kvintet, Jack White i Marilyn Manson - novinky.cz


Spirituál Kvintet:
Spirituál kvintet: Snad energie vydrží - denik.cz


Spirituál Kvintet:
Spirituál Kvintet vystoupí v Žatci - ceskenoviny.cz


Spirituál Kvintet:
Spirituál kvintet vystúpi 9. marca v Bratislave - Po dlhšej odmlke sa na Slovensko vráti česká folková legenda Spirituál kvintet, kto...


Spirituál Kvintet:
Spirituál kvintet: Žasneme, ale svůj program máme stále nabitý - denik.cz


Spirituál Kvintet:
Spirituál kvintet 1960–2010: Sto nejkrásnějších písní (+1) - countryworld.cz


 

Spirituál Kvintet

Fanúšikov: 8



A B C Č D E F G H CH I J K L Ľ M N O P Q R S Š T U V W X Y Z Ž



ako:
Spirituál Kvintet - Zelené pláně
Spirituál Kvintet - Zelené pláně

tlač

edituj
V originále: Green fields
Pesničku videlo 4469 návštevníkov.

Kvalita tabov : bez hodnotenia
Hodnotilo ľudí: 0 ohodnoť aj ty
Prispievateľ:

petr554
Autor hudby: Spirituál kvibtet
Takt 4/4 (3/4)

Acoustic 1


H E E S S S S S S S S E E S S S S S S S S
E||-------------------------|----------------1-L-L---1-L-----|
B||-----------------1-L-L---|--1-L---------------------------|
G||-------------------------|-------------2--L---2-L-L---2---|
D||--------------2--L---2-L-|--L---2---2-------------0-------|
A||-----------0-------------|--0-----------------------------|
E||-------------------------|--------------------------------|


E E S S S S S S S S Q Q E. S E E S S S S
-----------------------------|---------------------------|
--------1-L-L---1-L----------|-------------------1-L-L---|
-----------------------------|---------------------------|
-----2--L---2-L-L------------|----------------2--L---2-L-|
--0--------------------------|-------------0-------------|
------------------------0----|--L----L-------------------|


S S S S E E S S S S S S S S E E S S S S S S S S
----------------1-L-L---|--1-L---------------------------|
--1-L-------------------|----------------1-L-L---1-L-----|
-------------2--L---2-L-|--L---2-------------------------|
--L-------0-------------|--0----------2--L---2-L-L-------|
--0---------------------|----------0---------------------|
------------------------|--------------------------------|


E. S E. S E E E E S S S S S S S S E E
--0-----2---L-4-----|------------------------------|
--------------------|--------1-L-L---1-L-----------|
--1-----2---L-4-----|---------------------------2--|
--2-----4-----------|-----2--L---2-L-L-------0-----|
--------------------|--0---------------------------|
--------------4-----|------------------------------|


S S S S S S S S E E S S S S S S S S E E S S S S
--1-L-L---1-L-----------|--0-L-L---0-L-----------3-L-L---|
------------------------|---------------------0--L---0-L-|
--L---2-L-L----------0--|--L---0-L-L---------------------|
--L---------------------|--------------------------------|
------------------3-----|--3-------L-3-------------------|
------------------------|------------------3-------------|


S S S S E E S S S S S S S S E E S S S S E. S
--3-L-----------1-L-L---1-L-----|----------------------|
--L-----------------------------|--------0-L-L---0-----|
-------------2--L---2-L-L---2---|--------0-L-L---0-----|
--------------------------------|-----0--L---0-L-L-----|
--------------------------------|----------------------|
--3---L---1---------------------|--3-------------L-----|


E E S S S S S S S S E E S S S S S S S S E E
--------0-L-L---0-L-----------|------------------------|
------------------------------|--2-L-L---2-L-----------|
-----0--L---0-L-L---0---------|--2-L-L---2-L--------2--|
---------------------------2--|--L---2-L-L-------0-----|
--3---------------------0-----|--0---------------------|
------------------------------|------------------------|


S S S S S S S S E E S S S S S S S S E E S S S S
--1-L-L---1-L-----------3-L-L---|--3-L-----------0-L-L---|
---------------------0--L---0-L-|--L---0-----------------|
--L---2-L-L---2-----------------|-------------0--L---0-L-|
--L-----------------------------|------------------------|
--------------------------------|----------3-------------|
------------------3-------------|--3---------------------|


S S S S E E S S S S E. S E E S S S S S S S S E E
--0-L-----------0-L-L---0-----|------------------------------|
-------------0--L---0-L-L-----|--------1-L-L---1-L-----------|
--L-------------1-L-L---1-----|---------------------------2--|
----------2-------------------|-----2--L---2-L-L---2---0-----|
--3-L-------------------------|--0---------------------------|
------------------------------|------------------------------|


S S S S S S S S E E S S S S S S S S E E S S S S
--1-L-L---1-L-----------|------------------------0-L-L---|
------------------------|--1-L-L---1-L--------0--L---0-L-|
--L---2-L-L---2---------|------------------------1-L-L---|
--L------------------2--|--L---2-L-L---2---2-------------|
------------------0-----|--0-----------L-----------------|
------------------------|--------------------------------|


E. S E E S S S S S S S S S E. S S S S S S S S
--0-------------------|--------------------------------|
--L-----------1-L-L---|--1-L-----------1-L-L---1-L-----|
--1-------------------|--------------------------------|
--L--------2--L---2-L-|--L---------2---L---2-L-L---2---|
--------0-------------|--0-0-L---0---------------------|
----------------------|----0-L-------------------------|


E E S S S S S S S S E E S S S S S S S S E E
------------------------------|--1-L-L---1-L-----------|
--------1-L-L---1-L-----------|------------------------|
---------------------------2--|--L---2-L-L---2---------|
-----2--L---2-L-L-------2-----|--L------------------2--|
--0---------------------------|------------------0-----|
------------------------------|------------------------|


S S S S S S S S E. S E. S E E E E S S S S
------------------0-----2---L-|--4-------------------|
--1-L-L---1-L-----------------|--0-----------1-L-L---|
------------------1-----2---L-|----------------------|
--L---2-L-L-------2-----4-----|-----------2--L---2-L-|
--0---------------------------|--------0-------------|
------------------------------|--0-------------------|


S S S S E E S S S S S S S S E E S S S S S S S S
----------------1-L-L---1-L-----|--------0-L-L---0-L-----|
--1-L---------------------------|------------------------|
-------------2--L---2-L-L-------|-----0--L---0-L-L-------|
--L-------0---------------------|------------------------|
--L-----------------------------|--3---------------------|
--------------------------------|------------------------|


E E S S S S S S S S E E S S S S S S S S E E S S S S
--------3-L-L---3-L-----------|--1-L-L---1-L-------------------|
-----0--L---0-L-L-------------|------------------------0-L-L---|
---------------------------2--|--L---2-L-L---2---------0-L-L---|
------------------------------|---------------------0--L---0-L-|
------------------------------|--------------------------------|
--3---------------------1-----|--L---------------3-------------|


E. S E E S S S S S S S S E E S S S S S S S S
--------------0-L-L---|--0-L---------------------------|
--0-------------------|----------------2-L-L---2-L-----|
--0--------0--L---0-L-|--L---0---------2-L-L---2-L-----|
--L-------------------|-------------2--L---2-L-L-------|
--------3-------------|--L-3-L-L-3--L--L-L-L-L-L-L-L-L-|
--L-------------------|--------------------------------|


E E S S S S S S S S E E S S S S S S S S E E
--------1-L-L---1-L-----|--------3-L-L---3-L-----------|
------------------------|-----0--L---0-L-L---0---------|
-----2--L---2-L-L---2---|---------------------------0--|
--0---------------------|------------------------------|
--L--L--L-L-L-L-L-L-L-L-|--L--L--L-L-L-L-L-L-L-L-3--L--|
------------------------|--3---------------------------|


S S S S S S S S E E S S S S E. S E E S S S S
--0-L-L---0-L-----------|--0-L-L---0-------------------|
---------------------0--|--L---0-L-L-----------1-L-L---|
--L---0-L-L-------------|--1-L-L---1-------------------|
------------------2-----|--L----------------2--L---2-L-|
--L---------------------|----------------3-------------|
------------------------|------------------------------|


S S S S E E S S S S S S S S E E S S S S S S S S
----------------1-L-L---1-L-----|------------------------|
--1-L---------------------------|--------1-L-L---1-L-----|
-------------2--L---2-L-L---2---|------------------------|
--L---2---0--L--L-L-L-L-L-L-L---|-----2--L---2-L-L---2---|
--L-3-L-------------------------|--0--L--L-L-L-L-L-L-----|
--------------------------------|------------------------|


E E S S S S E. S E E S S S S S S S S S E.
--------0-L-L---0-----------|------------------------|
-----0--L---0-L-L-----------|--1-L-L---1-L-----------|
--------1-L-L---1-----------|------------------------|
--2--L--L-L-L-L-L--------2--|--L---2-L-L---------2---|
----------------------0--L--|--L-L-L-L-L-L-L---0-L---|
----------------------------|------------0-L-L-------|


S S S S S S S S E E S S S S S S S S S E. S S S S S S S S
------------------------1-L-L---|--1-L-----------1-L-L---1-L-----|
--1-L-L---1-L-------------------|--------------------------------|
---------------------2--L---2-L-|--L---------2---L---2-L-L---2---|
--L---2-L-L---2-----------------|--------------------------------|
--L-L-L-L-L-L-L-----------------|----3-L-L-----------------------|
------------------1--L--L-L-L-L-|--L-L-L---1-L---L-L-L-L-L-L-L---|


E E S S S S S S S S E E S S S S E S S E E
--------3-L-L---3-L-----|--------0-L-L----------------|
-----0--L---0-L-L---0---|----------------1------------|
------------------------|-----0--L---0-------------2--|
------------------------|-------------------2---------|
------------------------|--3--L--L-L-L----------------|
--3--L--L-L-L-L-L-L-----|-----------------------1--L--|


S S S S S S S S S E S S S S S S S S S E E S S S S
--1-L-L---1-L-L-L-L-L----1-L-L---|--1-L-L---------3-L-L---|
---------------------------------|-------------0--L---0-L-|
--L---2-L-L---2-L-L-2--L-L---2-L-|--L---2-----------------|
---------------------------------|------------------------|
---------------------------------|------------------------|
--L-L-L-L-L-L-L---1-L--L-L-L-L-L-|--L-L-L---3--L--L-L-L-L-|


S S S S E E S S S S E S S E E S S S S S S E S E.
--3-L-----------0-L-L----------|-----------------------------|
--L---------------------0------|--------1-L-L---1-L----------|
-------------0--L---0----------|-----------------------------|
------------------------0------|-----2--L---2-L-L---2--L-2---|
----------3--L--L-L-L----------|--0--L--L-L-L-L-L-L----0-L---|
--L-3-L--------------------0---|-----------------------------|


S S S S S S S S E E S S S S S S S S S E. S S S S S S S S
------------------------1-L-L---|--1-L-----------1-L-L---1-L-----|
--1-L-L---1-L-------------------|--------------------------------|
---------------------2--L---2-L-|--L---------2---L---2-L-L---2---|
--L---2-L-L---2---0--L--L-L-L-L-|--L-L-L---0-L---L-L-L-L-L-L-L---|
--L-L-L-L-L-L-L-----------------|----0-L-L-----------------------|
--------------------------------|--------------------------------|


E E S S S S S S S S E E S S S S S S S S E E S S S S
------------------------------|--1-L-L---1-L-------------------|
--------1-L-L---1-L-----------|------------------------4-L-L---|
---------------------------2--|--L---2-L-L---2---------4-L-L---|
-----2--L---2-L-L---2---0--L--|--L-L-L-L-L-L--------4--L---4-L-|
--0--L--L-L-L-L-L-L-----------|------------------2--L--L-L-L-L-|
------------------------------|--------------------------------|


S S S S E E S S S S S S S S E E S S S S S S S S E E
----------------0-L-L---0-L-----|------------------------------|
--4-L---------------------------|--------1-L-L---1-L-----------|
--4-L--------1--L---1-L-L---1---|---------------------------2--|
--L---4-------------------------|-----2--L---2-L-L-------0--L--|
--L-L---------------------------|--0--L--L-L-L-L-L-0-L---------|
----------0--L--L-L-L-L-L-L-L---|------------------------------|


S S S S S S S S E E S S S S S S S S E. S E. S E E
--1-L-L---1-L-------------------|----------0-----2---L-4-----|
------------------------1-L-L---|--1-L-----------------0-----|
--L---2-L-L---2-----------------|----------1-----2---L-------|
--L-L-L-L-L-L-L------2--L---2-L-|--L-------2-----4-----------|
------------------0--L--L-L-L-L-|--L-0-L---------------------|
--------------------------------|----------------------4-----|


E E S S S S S S S S E E S S S S S S S S E E S S S S
------------------------------|--1-L-L---1-L-----------0-L-L---|
--------1-L-L---1-L-----------|--------------------------------|
---------------------------2--|--L---2-L-L----------0--L---0-L-|
-----2--L---2-L-L-------0--L--|--L-L-L-L-L-0-L-----------------|
--0--L--L-L-L-L-L-0-L---------|------------------3--L--L-L-L-L-|
------------------------------|--------------------------------|


S S S S E E S S S S S S S S E E S S S S S S S S E E
--0-L-----------3-L-L---3-L-----|--------1-L-L---1-L-----------|
-------------0--L---0-L-L-------|------------------------------|
--L-----------------------------|-----2--L---2-L-L---2---------|
--------------------------------|---------------------------0--|
--L-3-L-------------------------|------------------------------|
----------3--L--L-L-L-L-L-3-L---|--1--L--L-L-L-L-L-L-----3--L--|


S S S S E. S E E S S S S S S S S E E S S S S
----------------------0-L-L---|--0-L-------------------|
--0-L-L---0-------------------|----------------2-L-L---|
--0-L-L---0--------0--L---0-L-|--L---0---------2-L-L---|
--L---0-L-L-------------------|-------------2--L---2-L-|
----------------3--L--L-L-L-L-|--L-L-L---0--L--L-L-L-L-|
--L-L-L-L-L-------------------|------------------------|


S S S S E E S S S S S S S S E E S S S S S S S S
----------------1-L-L---1-L-----|--------3-L-L---3-L-----|
--2-L---------------------------|-----0--L---0-L-L---0---|
--2-L--------2--L---2-L-L---2---|------------------------|
--L-------0--L--L-L-L-L-L-L-L---|------------------------|
--L-0-L-------------------------|------------------------|
--------------------------------|--3--L--L-L-L-L-L-L-----|


E E S S S S S S S S E E S S S S E. S E E
--------0-L-L---0-L-----------|---0--L--L----0-----------|
---------------------------0--|---L-----0-L--L-----------|
-----0--L---0-L-L-------------|--13--L--L---13-----------|
------------------------2--L--|---L--L--L-L--L--------2--|
--3--L--L-L-L-L-L-3-L---------|--------------------0--L--|
------------------------------|--------------------------|


S S S S S S S S E E S S S S S S S S E E S S S S S S S S
------------------------1-L-L---|--1-L---------------------------|
--1-L-L---1-L-------------------|----------------1-L-L---1-L-----|
---------------------2--L---2-L-|--L---2-------------------------|
--L---2-L-L---2---0--L--L-L-L-L-|--L-L-L------2--L---2-L-L---2---|
--L-L-L-L-L-L-L-----------------|----------0--L--L-L-L-L-L-L-----|
--------------------------------|--------------------------------|


S H E S Q Q. S H S
-----0---------L---L------|----------------------|
--0--L---------L----------|-----------1--------L-|
----13---------L---L------|---------2-L--------L-|
--2--L---------L----------|---------2-L--------L-|
--------------------------|---------0-L--------L-|
--------------------------|----------------------|


H. Q
--------------------||
--L-----------------||
--L-----------------||
--L-----------------||
--L------------L----||
--------------------||


v pdf:
https://www.dropbox.com/s/w0ssv9bg6ik0vyg/
Spiritual_kvintet-Zelene_plane.pdf

Duration Legend
---------------
W - whole
H - half
Q - quarter
E - 8th
S - 16th
T - 32nd
X - 64th
. - note dotted
|-n-| - n-tuplets


Tablature Legend
----------------
L - tied note
x - dead note
g - grace note
(n) - ghost note
> - accentuded note
NH - natural harmonic
AH - artificial harmonic
TH - tapped harmonic
SH - semi harmonic
PH - pitch harmonic
h - hammer on
p - pull off
b - bend
br - bendRelease
pb - preBend
pbr - preBendRelease
brb - bendReleaseBend
\n/ - tremolo bar dip
\n - tremolo bar dive
-/n - tremolo bar Release up
/n\ - tremolo bar inverted dip
/n - tremolo bar return
-\n - tremolo bar Release down
S - shift slide
s - legato slide
/ - slide into from below or out of upwards
\ - slide into from above or out of downwards
~ - vibrato
W - wide vibrato
tr - trill
TP - tremolo picking
T - tapping
S - slap
P - pop
< - fade in
^ - brush up
v - brush down

 
»
Tvoje obľúbené položky
Tvoje obľúbené položky
»
Nové albumy interpreta
Nové albumy interpreta
11xCD+DVD Spiritual Kvintet Albovy box
11xCD+DVD Albovy box
CD Spiritual Kvintet Cerstvy vitr
CD Cerstvy vitr
2xCD Spiritual Kvintet Vse o vanocich/box
2xCD Vse o
vanocich/box
4xCD Spiritual Kvintet Sto nejkrasnejsich pisni (+1)
4xCD Sto
nejkrasnejsich
pisni (+1)
CD Spiritual Kvintet Zatim dobry...
CD Zatim dobry...

»
Najnovšie videá
Najnovšie videá

Spiritul kvintet ve Svatm Jnu pod Ska

Josef Zma Zelen pln.wmv

Spiritul Kvintet u Svatho Salvatora (1

Spiritua

Asonance - Zelen francouzsk pln

Spiritual kvintet
»
Najnavštevovanejšie piesne
Najnavštevovanejšie piesne
Batalion - akordy a text

Batalion 2.verze - akordy a text

Batalion - akordy a text

Bim Bam - akordy a text

Stará archa - akordy a text

Zelené pláně - taby

Ten širý proud - taby

Za svou pravdou stát - akordy a text

Válka růží - akordy a text

Válka růží - tab [intro] - taby

Mojžíš - akordy a text

Mlýny - akordy a text

Spinkej - akordy a text

Zelené pláně - akordy a text

Soudný den - akordy a text

Starý příběh - akordy a text

Trh ve Scarborough - akordy a text

Širý proud - akordy a text

Pískající cikán - akordy a text

Dvě báby - akordy a text

viac




home | interpreti | register piesní | cd & dvd shop | pripomienky/nápady | kontakt | ochrana údajov | inzercia

TOPlist