Pavlína Jíšová

piesne (73)

  texty (71) / preklady (0)
  akordy (66) / taby (2)
  noty (0) / slideshow (0)

články (21)
fotogaléria
diskusia
videá
diskografia
v obchode
odkazy
koncerty
sťahuj



pridaj vlastný článok

Pavlína Jíšová:
Pavlína Jíšová na albu To já, písnička nabízí své nejlepší písně - Pavlína Jíšová na albu To já, písnička nabízí své nejlepší písně Nové al... - countryworld.cz


Pavlína Jíšová:
Na Slovensko prichádza prvá dáma folku Pavlína Jíšová - V rámci marcovej Pálenčáreň Tour sa predstaví osobnosť českej folkovej scény P...


Pavlína Jíšová:
Pavlína Jíšová pokřtila nové CD To si piš... - countryworld.cz


Cafe Edit:
Zlatá Studňa Lodenica 2008 – VIVA scéna - Zlatá Studňa Lodenica 2008 – VIVA scéna Zdá sa že aj tento rok lodeničiarska V...


Pavlína Jíšová:
Nezmaři oslavili třicítku - denik.cz


Ag Flek:
Desítky kapel zdarma - lázeňská sezóna Teplice 2008 - Desítky kapel zdarma - lázeňská sezóna Teplice 2008 Slavnostní zahájení 854. l... - supermusic.sk


Bratři Ebenové:
Havěť dětem - folkcountry.cz


Pavel Bobek:
Country Lodenica predstaví špičku českej a slovenskej scény - gregi.net


Bezefšeho:
Country Lodenica 2005: kompletný program! - gregi.net


Alice:
Na letošní Stodole Michala Tučného se bude vzpomínat - Na letošní Stodole Michala Tučného se bude vzpomínat Už tomu bude již 10 let, ...


 

Pavlína Jíšová

Fanúšikov: 1



A B C Č D E F G H CH I J K L Ľ M N O P Q R S Š T U V W X Y Z Ž



ako:
Pavlína Jíšová - Já písnička
Pavlína Jíšová - Já písnička



tlač

edituj
Pesničku videlo 4220 návštevníkov.

Kvalita tabov : bez hodnotenia
Hodnotilo ľudí: 0 ohodnoť aj ty
Prispievateľ:

petr554
Autor hudby: Žalman Pavel Lohonka
Steel Guitar
takt 4/4

Legend
L - tied note
x - dead note
h - hammer on/pull off
b - bend
s - slide
~ - vibrato
g - ghost note
> - accentuated note
t - trill
M - palm mute
. - staccato
P - popping (bass)
S - slapping (bass)
+ - tapping
W - wide vibrato
< - fade in
w - whammy bar
= - tremolo picking
v - brush up
^ - brush down
V - pick stroke up
n - pick stroke down


E |----------------------------|----------------------------|
B |----------------------------|----------------------------|
G |-----2-----2-----2-----2----|-----2-----2-----2-----2----|
D |--0-----0-----0-----0-------|--0-----0-----0-----0-------|
A |----------------------------|----------------------------|
E |----------------------------|----------------------------|


----------------------------|
----------------------------|
-----2-----2-----2-----2----|
--0-----0-----0-----0-------|
----------------------------|
----------------------------|


----------------------------------------------------|
--3-------------------------------------------------|
--2-----2-----2-----2-----2-----2-----2-----2-------|
--0-----------0-----------0L-0--------0-------------|
----------------------------------------------------|
----------------------------------------------------|


--0-------------------------|----------------------------|
--1-------------------------|----------------------------|
--0--0--0--0--0--0--0--0----|--2-------------------------|
--2-----2-----2-----2-------|--2--2--2--2--2--2--2--2----|
--3-----3-----3-----3-------|--0-----0-----0-----0-------|
----------------------------|----------------------------|


----------------------------|
--3-------------------------|
--2--2--2--2--2--2--2--2----|
--0-----0-----0-----0-------|
----------------------------|
----------------------------|


----------------------------------------------------|
--3-------------------------------------------------|
--2-----2-----2-----2-----2-----2-----2-----2-------|
--0-----------0-----------0L-0--------0-------------|
----------------------------------------------------|
----------------------------------------------------|


--0-------------------------|----------------------------|
--1-------------------------|----------------------------|
--0--0--0--0--0--0--0--0----|--2-------------------------|
--2-----2-----2-----2-------|--2--2--2--2--2--2--2--2----|
--3-----3-----3-----3-------|--0-----0-----0-----0-------|
----------------------------|----------------------------|


----------------------------|
--3-------------------------|
--2--2--2--2--2--2--2--2----|
--0-----0-----0-----0-------|
----------------------------|
----------------------------|


--1--------------1--------1--------------1----------|
--1--------1-----1-----1--1--------1-----1-----1----|
--2-----2--------2--2-----2-----2--------2--2-------|
--3--------------3--------3--------------3----------|
--3-----------------------3-------------------------|
--1-----------------------1-------------------------|


--0--------------0--------0--------------0----------|
--1--------1-----1-----1--1--------1-----1-----1----|
--0-----0--------0--0-----0-----0--------0--0-------|
--2--------------2--------2--------------2----------|
--3-----------------------3-------------------------|
----------------------------------------------------|


--1--------------1--------1--------------1----------|
--3--------3-----3-----3--3--------3-----3-----3----|
--2-----2--------2--2-----2-----2--------2--2-------|
--0--------------0--------0--------------0----------|
--0-----------------------0-------------------------|
----------------------------------------------------|


--1--------------1--------0-----0-------------------|
--3--------3-----3-----3--2-----2-------------------|
--2-----2L-2-----2--2-----0-----0-------------------|
--0--------------0--------2-----2-------------------|
--------------------------0-----0-------------------|
----------------------------------------------------|


--1--------------1--------1--------------1----------|
--3--------3-----3-----3--3--------3-----3-----3----|
--2-----2--------2--2-----2-----2--------2--2-------|
--0--------------0-----------------------0----------|
--0-------------------------------------------------|
----------------------------------------------------|


--0--------------0--------0--------------0----------|
--1--------1-----1-----1--1--------1-----1-----1----|
--0-----0--------0--0-----0-----0--------0--0-------|
--2--------------2--------2--------------2----------|
--3-----------------------3--------------3----------|
----------------------------------------------------|


--0--------------0--------0--------------0----------|
--1--------1-----1-----1--1--------1-----1-----1----|
--2-----2--------2--2-----2-----2--------2--2-------|
--2--------------2--------2--------------2----------|
--0-------------------------------------------------|
----------------------------------------------------|


--1--------------1--------1--------------1----------|
--3--------3-----3-----3--3--------3-----3-----3----|
--2-----2--------2--2-----2-----2--------2--2-------|
--0--------------0--------0--------------0----------|
--0-------------------------------------------------|
----------------------------------------------------|


--1--------------1--------1--------------1----------|
--3--------3-----3-----3--3--------3-----3-----3----|
--2-----2--------2--2-----2-----2--------2--2-------|
--0--------------0-----------------------0----------|
--0-------------------------------------------------|
----------------------------------------------------|


--0--------------0--------0--------------0----------|
--1--------1-----1-----1--1--------1-----1-----1----|
--0-----0--------0--0-----0-----0--------0--0-------|
--2--------------2--------2--------------2----------|
--3-----------------------3--------------3----------|
----------------------------------------------------|


--0--------------0--------0--------------0----------|
--1--------1-----1-----1--1--------1-----1-----1----|
--2-----2--------2--2-----2-----2--------2--2-------|
--2--------------2--------2--------------2----------|
--0-------------------------------------------------|
----------------------------------------------------|


--1--------------1--------1--------------1----------|
--3--------3-----3-----3--3--------3-----3-----3----|
--2-----2--------2--2-----2-----2--------2--2-------|
--0--------------0-----------------------0----------|
--0-------------------------------------------------|
----------------------------------------------------|


--1--------------1--------1--------------1----------|
--3--------3-----3-----3--3--------3-----3-----3----|
--2-----2--------2--2-----2-----2--------2--2-------|
--0--------------0-----------------------0----------|
--0-------------------------------------------------|
----------------------------------------------------|


--0--------------0--------0--------------0----------|
--1--------1-----1-----1--1--------1-----1-----1----|
--0-----0--------0--0-----0-----0--------0--0-------|
--2--------------2--------2--------------2----------|
--3-----------------------3--------------3----------|
----------------------------------------------------|


--0--------------0--------0--------------0----------|
--1--------1-----1-----1--1--------1-----1-----1----|
--2-----2--------2--2-----2-----2--------2--2-------|
--2--------------2--------2--------------2----------|
--0-------------------------------------------------|
----------------------------------------------------|


--1--------------1--------1--------------1----------|
--3--------3-----3-----3--3--------3-----3-----3----|
--2-----2--------2--2-----2-----2--------2--2-------|
--0--------------0-----------------------0----------|
--0-------------------------------------------------|
----------------------------------------------------|


--1--------------1--------1--------------1----------|
--1--------1-----1-----1--1--------1-----1-----1----|
--2-----2--------2--2-----2-----2--------2--2-------|
--3--------------3--------3--------------3----------|
--3-----------------------3-------------------------|
--1-----------------------1-------------------------|


--0--------------0--------0--------------0----------|
--1--------1-----1-----1--1--------1-----1-----1----|
--0-----0--------0--0-----0-----0--------0--0-------|
--2--------------2--------2--------------2----------|
--3-----------------------3--------------3----------|
----------------------------------------------------|


--1--------------1--------1--------------1----------|
--3--------3-----3-----3--3--------3-----3-----3----|
--2-----2--------2--2-----2-----2--------2--2-------|
--0--------------0-----------------------0----------|
--0-------------------------------------------------|
----------------------------------------------------|


--1--------------1--------3-----3-------------------|
--3--------3-----3-----3--2-----2-------------------|
--2-----2--------2--2-----0-----0-------------------|
--0--------------0--------2-----2-------------------|
--0-----------------------0-----0-------------------|
----------------------------------------------------|


--1--------------1--------1--------------1----------|
--3--------3-----3-----3--3--------3-----3-----3----|
--2-----2--------2--2-----2-----2--------2--2-------|
--0--------------0-----------------------0----------|
--0-------------------------------------------------|
----------------------------------------------------|


--0--------------0--------0--------------0----------|
--1--------1-----1-----1--1--------1-----1-----1----|
--0-----0--------0--0-----0-----0--------0--0-------|
--2--------------2--------2--------------2----------|
--3-----------------------3--------------3----------|
----------------------------------------------------|


--0--------------0--------0--------------0----------|
--1--------1-----1-----1--1--------1-----1-----1----|
--2-----2--------2--2-----2-----2--------2--2-------|
--2--------------2--------2--------------2----------|
--0-------------------------------------------------|
----------------------------------------------------|


--1--------------1--------1--------------1----------|
--3--------3-----3-----3--3--------3-----3-----3----|
--2-----2--------2--2-----2-----2--------2--2-------|
--0--------------0-----------------------0----------|
--0-------------------------------------------------|
----------------------------------------------------|


----------------------------|----------------------------|
----------------------------|----------------------------|
-----2-----2-----2-----2----|-----2-----2-----2-----2----|
--0-----0-----0-----0-------|--0-----0-----0-----0-------|
----------------------------|----------------------------|
----------------------------|----------------------------|


----------------------------------------------------|
--3-------------------------------------------------|
--2-----2-----2-----2-----2-----2-----2-----2-------|
--0-----------0-----------0L-0--------0-------------|
----------------------------------------------------|
----------------------------------------------------|


--0-------------------------|----------------------------|
--1-------------------------|----------------------------|
--0--0--0--0--0--0--0--0----|--2-------------------------|
--2-----2-----2-----2-------|--2--2--2--2--2--2--2--2----|
--3-----3-----3-----3-------|--0-----0-----0-----0-------|
----------------------------|----------------------------|


----------------------------|
--3-------------------------|
--2--2--2--2--2--2--2--2----|
--0-----0-----0-----0-------|
----------------------------|
----------------------------|


----------------------------------------------------|
--3-------------------------------------------------|
--2-----2-----2-----2L-2--------2-----2-----2-------|
--0-----------0-----------0L-0--------0-------------|
----------------------------------------------------|
----------------------------------------------------|


--0-------------------------|----------------------------|
--1-------------------------|----------------------------|
--0--0--0--0--0--0--0--0----|--2-------------------------|
--2-----2-----2-----2-------|--2--2--2--2--2--2--2--2----|
--3-----3-----3-----3-------|--0-----0-----0-----0-------|
----------------------------|----------------------------|


----------------------------|
--3-------------------------|
--2--2--2--2--2--2--2--2----|
--0-----0-----0-----0-------|
----------------------------|
----------------------------|


--1--------------1--------1--------------1----------|
--1--------1-----1-----1--1--------1-----1-----1----|
--2-----2--------2--2-----2-----2--------2--2-------|
--3--------------3--------3--------------3----------|
--3-----------------------3-------------------------|
--1-----------------------1-------------------------|


--0--------------0--------0--------------0----------|
--1--------1-----1-----1--1--------1-----1-----1----|
--0-----0--------0--0-----0-----0--------0--0-------|
--2--------------2--------2--------------2----------|
--3-----------------------3-------------------------|
----------------------------------------------------|


--1--------------1--------1--------------1----------|
--3--------3-----3-----3--3--------3-----3-----3----|
--2-----2--------2--2-----2-----2--------2--2-------|
--0--------------0--------0--------------0----------|
--0-----------------------0-------------------------|
----------------------------------------------------|


--1L----1L-1-----1L-1L-1--3-----3-------------------|
--3--------3-----3L-3--3--2-----2-------------------|
--2-----2L-2-----2--2L-2--0-----0-------------------|
--0L----0L-0-----0L-0L-0--2-----2-------------------|
--0L----0L-0L----0--------0-----0-------------------|
----------------------------------------------------|


--1--------------1--------1--------------1----------|
--3--------3-----3-----3--3--------3-----3-----3----|
--2-----2--------2--2-----2-----2--------2--2-------|
--0--------------0--------0--------------0----------|
--0-----------------------0-------------------------|
----------------------------------------------------|


--0--------------0--------0--------------0----------|
--1--------1-----1-----1--1--------1-----1-----1----|
--0-----0--------0--0-----0-----0--------0--0-------|
--2--------------2--------2--------------2----------|
--3-----------------------3-------------------------|
----------------------------------------------------|


--0L----------0-------------|----------------------------|
--1L----------1-------------|----------------------------|
--2L----------2-------------|-----2-----2-----2-----2----|
--2L----------2-------------|--0-----0-----0-----0-------|
--0L----------0-------------|----------------------------|
----------------------------|----------------------------|


--------------2L------------|--2-------------------------||
--------------3L------------|--3-------------------------||
-----2-----2--2L------------|--2-------------------------||
--0-----0-----0L------------|--0-------------------------||
----------------------------|----------------------------||
----------------------------|----------------------------||

tab v pdf:
https://www.dropbox.com/s/qsur18x236ygw0d/Pavlina_Jisova-Ja_pisnicka.pdf

 
»
Tvoje obľúbené položky
Tvoje obľúbené položky
»
Nové albumy interpreta
Nové albumy interpreta

»
Najnovšie videá
Najnovšie videá

Pavlna Jov, alman a spol. - J, ps

Druh trva - J psnika

PAVLNA J͊OV J PSNIKA

Pavlna Jov, Adla Lounkov, Petra a

Pavlna Jov a ptel: J, psnika

J psnika - Pavlna Jov
»
Najnavštevovanejšie piesne
Najnavštevovanejšie piesne
Já, písnička - akordy a text

Žába - akordy a text

Já písnička - taby

Jeruzalém ze zlata (Jerušalajim šel zahav) - akordy a text

Něco lehčího - akordy a text

- akordy a text

Bouře (Ready For The Storm) - akordy a text

Dneska jsem jiná - akordy a text

Já, písnička - text

K bráně bran - akordy a text

Jsem - akordy a text

Ošklivá Žaneta - text

V proutěném křesle - text

Až se naučím mlčet - akordy a text

Bůh rozvalin - akordy a text

Býváš můj sen - akordy a text

Dobrá zlá - akordy a text

Dopis - akordy a text

Dvanáct vůní - akordy a text

Ester - akordy a text

viac




home | interpreti | register piesní | cd & dvd shop | pripomienky/nápady | kontakt | ochrana údajov | inzercia

TOPlist