Škwor

piesne (125)

  texty (101) / preklady (0)
  akordy (30) / taby (17)
  noty (0) / slideshow (0)

články (41)
fotogaléria
diskusia
videá
diskografia
v obchode
odkazy
koncerty
sťahuj



pridaj vlastný článok

Abraxas:
Votvírák – s novou vlnou předprodeje připlouvá i Pavol Habera & Team - 8 Duben 2017 David Nguyen Žádné komentáře Novinky Votvírák – s novou vlnou... - rockandpop.cz


Škwor:
Škvor oslaví plnoletost velkým koncertem - Škvor oslaví plnoletost velkým koncertem Autor: Iva Boková 03.10.2016 Tisk Věř... - abradio.cz


Apple Juice:
RATATA fest v Mostě obsadili Deviant, Apple Juice, Škwor a nakonec Citron - Vydáno včera Facebook11 Twitter0 Google+0 Další ročník mosteckého RATATA fes... - ireport.cz


Škwor:
Historickou slavnost Barchan si naplno podmanili Škwor - Vydáno před 4 hodinami Facebook32 Twitter0 Google+0 Jemnickou čtyřdenní slavno... - ireport.cz


Rihanna:
TOP 6 videoklipů týdne (81.): Rihanna se nebojí erotiky, Škwor jsou
vztahoví poradci
- Vydáno včera | autor: David Stoklas Facebook52 Twitter0 Google+0 Klipy minulého t... - ireport.cz


Škwor:
ŠKWOR hlásí "Máme tu problém" - Půl roku po vydání nového řadového alba Hledání Identity jej Škwor připomínaj... - supraphon.cz


Škwor:
Nové album Škwor - Hledání Identity předznamenává singl a klip
Kolikrát...
- Naživo jej kapela představí na velkém podzimním turné Nové album Š... - rockmag.cz


Škwor:
Škwor na novém albu hledá IDentitu. Chystá se i na turné - /**/ více tiscali.cz ... - IREPORT


Škwor:
Škwor: živák z Incheby a nálet na Lucernu - /**/ více tis... - IREPORT


Škwor:
Škwor - Poslouchej - Skupina Škwor přestavujeme nový singl "Poslouchej" z chystaného alba SLIBY & LŽI. St... - supraphononline


 

Škwor

Fanúšikov: 14



A B C Č D E F G H CH I J K L Ľ M N O P Q R S Š T U V W X Y Z Ž



ako:
Škwor - Muze se stat
Škwor - Muze se stat

tlač

edituj
Pesničku videlo 2670 návštevníkov.

Kvalita tabov : bez hodnotenia
Hodnotilo ľudí: 0 ohodnoť aj ty
Prispievateľ:

Tommik_zo_Sale
  *** Autor textu: Skwor *** Autor hudby: Skwor

Škwor - Muže se stát - sólo

Legenda:

b - bend
s - slide

E-------11-----11-----11-----11---------------------------------------------
H---14b----14b----14b----14b----14b-14-12----------12-----------------------
G-----------------------------------------13---s13----13-12-11--------------
D--------------------------------------------------------------13-12-11-----
A---------------------------------------------------------------------------
E---------------------------------------------------------------------------

E---------------------------------------------------------------------------
H--------------------------4--4--4---7--7--7---9--9--9---9-9-9-9-9-9-9-9----
G--------------------------6b----6b--9b----9b--11b---11b--------------------
D------11-------11-13-13----------------------------------------------------
A---14----11-14-------------------------------------------------------------
E---------------------------------------------------------------------------

E---------------------------------------------------------------------------
H---------------------------------------------------------------------------
G---4-4s6-6-6-6-6--6-4-8-4---4s6-6s8-8s9-9--11--11s13-13-13-----------------
D---------------------------------------------------------------------------
A---2-2s4-4-4-4-4--4-2-6-2---2s4-4s6-6s7-7--9----9s11-11-11-----------------
E---------------------------------------------------------------------------

E---------------------------------------------------------------------------
H---------------------------------------------------------------------------
G---4-4s6-6-6-6-6--6-4-8-4---4s6-6s8-8s9-9s11-11s13-13-13-------------------
D---------------------------------------------------------------------------
A---2-2s4-4-4-4-4--4-2-6-2---2s4-4s6-6s7-7s9---9s11-11-11-------------------
E---------------------------------------------------------------------------

na youtube mam cover a su tam aj taby v Guitar Pro

 
»
Tvoje obľúbené položky
Tvoje obľúbené položky
»
Nové albumy interpreta
Nové albumy interpreta
CD Skwor Hledani identity
CD Hledani identity
2xCD+DVD Skwor Skwor - 15 let (live incheba arena 2013)
2xCD+DVD Skwor - 15 let
(live incheba
arena 2013)
2xCD Skwor Secteno podtrzeno
2xCD Secteno
podtrzeno
CD Skwor Vyhlasuju boj (spec. edice)
CD Vyhlasuju boj
(spec. edice)
CD Skwor Vyvolenej
CD Vyvolenej
CD Skwor Sliby a lzi
CD Sliby a lzi

»
Najnovšie videá
Najnovšie videá

KWOR me se stt HQ

kwor - Me se stt - Live at Bokov Fe

kwor - Me Se Stt (unplugged)

kWor Me se stt

05. KWOR - Me se stt live!

kwor - Me se stt [live @ Masters of
»
Najnavštevovanejšie piesne
Najnavštevovanejšie piesne
Síla starejch vín - akordy a text

Síla starejch vín 100% dobře - akordy

Síla starejch vín - akordy a text

Síla starejch vín - akordy

Máme tu problém - akordy a text

Milionů hvězd se ptáš - akordy a text

Sraž nás na kolena - akordy a text

Mý slzy neuvidíš - akordy

Kolikrát - akordy

Milionu hvězd se ptáš - akordy

Vzácnej je nám - akordy a text

Celebrity - akordy a text

Pohledy studený - akordy a text

Vizitka - akordy a text

Stíny a Mráz - akordy a text

Kámen - akordy a text

Může se stát - akordy a text

Amerika - akordy a text

Za barevnym sklem - akordy a text

Milionů hvězd se ptáš - sólo - taby

viac




home | interpreti | register piesní | cd & dvd shop | pripomienky/nápady | kontakt | ochrana údajov | inzercia

TOPlist