Thesus

piesne (12)

  texty (7) / preklady (0)
  akordy (0) / taby (5)
  noty (0) / slideshow (0)

články (2)
fotogaléria
diskusia
videá
diskografia
v obchode
odkazy
koncerty
sťahuj



pridaj vlastný článok

Thesus:
Demáč SELFTITLED skoro vonku!!! - Takže v týchto dňoch vychádza na svetlo sveta náš prvý demáč, ktorý sme duchapln...


Thesus:
THESUS na supermusic.sk - Čafte všetci (ne)fans THESUSu..!!! Takže som na tento server supermusic.sk pridal aj ...


 

Thesus

Fanúšikov: 0



A B C Č D E F G H CH I J K L Ľ M N O P Q R S Š T U V W X Y Z Ž



ako:
Thesus - Peace Pogo Punk
Thesus - Peace Pogo Punk

tlač

edituj
Rok vzniku: 2006
Pesničku videlo 1273 návštevníkov.

Kvalita tabov : bez hodnotenia
Hodnotilo ľudí: 0 ohodnoť aj ty
Prispievateľ:

retsil
  *** Autor textu: THESUS *** Autor hudby: THESUS
akordy :

[H], [A], [G], [F#], [D], [E], [F#2]

|-----| |-----| |-----| |-----| |-----| |-----| |------|
|-----| |-----| |-----| |-----| |-----| |-----| |------|
|-----| |-----| |-----| |-----| |--7--| |--9--| |--11--|
|--9--| |--7--| |--5--| |--4--| |--7--| |--9--| |--11--|
|--9--| |--7--| |--5--| |--4--| |--5--| |--7--| |---9--|
|--7--| |--5--| |--3--| |--2--| |-----| |-----| |------|


intro :

D |-------9--------7--------------5--------3--------|
A |----9-----9--------7--------5-----5--------3-----| 4x
E6|-7-----------5--------5--3-----------2--------2--|


sloha : [H], [A], [G], [F#]

refrén : [H], [D], [E], [F#2]

 
»
Tvoje obľúbené položky
Tvoje obľúbené položky
»
Nové albumy interpreta
Nové albumy interpreta

»
Najnovšie videá
Najnovšie videá
»
Najnavštevovanejšie piesne
Najnavštevovanejšie piesne
F.O.D. (Fuck off disco) - text

F.O.D. - taby

Nechápem - text

Drogy - text

Bistro - text

Pravda-lož - text

Vojny - text

Peace Pogo Punk - text

Drogy tabs - taby

Bistro - taby

Peace Pogo Punk - taby

Nechápem - taby




home | interpreti | register piesní | cd & dvd shop | pripomienky/nápady | kontakt | ochrana údajov | inzercia

TOPlist