Alkehol

piesne (255)

  texty (176) / preklady (0)
  akordy (104) / taby (55)
  noty (0) / slideshow (0)

články (47)
fotogaléria
diskusia
videá
diskografia
v obchode
odkazy
koncerty
sťahuj



pridaj vlastný článok

Alkehol:
Alkehol oslaví čtvrtstoletí v Lucerně. Po jejich boku vystoupí Pepa Vojtek,
Petr Janda, Tři sestry a Lukáš Pavlásek
- Vydáno před 13 hodinami | autor: Nicola Bernard Litry piva, hromada alkoholu a t... - ireport.cz


Alkehol:
Alkehol - Do bezvědomí - 12.12.2012 ve 12 hodin vyšlo nové CD skupiny Alkehol pod hlavičkou vydavatelstv... - rockmag.cz


Alkehol:
Alkehol slaví 20 let své existence na turné a výběrovým albem - ceskenoviny.cz


Alkehol:
Hořké alkeholové vystřízlivění - musicserver.cz


Alkehol:
Na Wings Rockfeste v Očovej vystúpia Desmod, Alkehol i Brichta - Na letisku pri obci Očová sa premiérovo uskutoční letné hudobné podujatie Wings R...


Alkehol:
RECENZE: Písničkový tuplák Alkeholu je průvodcem na dvacetiletém tahu - ireport.cz


Alkehol:
Alkehol: Ke kalhotkám přidáme na web i boxerky - denik.cz


Alkehol:
Alkehol zpívají o „chlastu“ už 20 let, oslaví to turné i albem - ireport.cz


Alkehol:
ALKEHOL 20 LET NA TAHU - Tuplák 2CD všech nejlepších kousků… Skupina ALKEHOL letos slaví 20 let svojí ex...


Alkehol:
Noc plná hvězd s Mr. Big a Pro-Pain, Basinfirefest s Ill Niño, Benátská
noc s Clawfinger
- muzikus.cz


 

Alkehol

Fanúšikov: 27



A B C Č D E F G H CH I J K L Ľ M N O P Q R S Š T U V W X Y Z Ž



ako:
Alkehol - Travičko zelená
Alkehol - Travičko zelená

tlač

edituj
Pesničku videlo 1198 návštevníkov.

Kvalita tabov : bez hodnotenia
Hodnotilo ľudí: 0 ohodnoť aj ty
Prispievateľ:

V.P.Froncouskejby

e--------------------------
h--------------------------
g---2----------------------
D-----5-4----4-4---2-----
A-5-------2----------------
E--------------------------

--------------------------
h--------------------------
g---2----------------------
D-----5-4----4--2----------
A-5-------2----------------
E--------------------------

--------------------------
h--------------------------
g---2----------------------
D-----5-4----4-4---2-----
A-5-------2----------------
E--------------------------

--------------------------
h--------------------------
g---2----------------------
D-----5-4----4----2--------
A-5-------2----------5-----
E--------------------------

e--------------------------
h--------------------------
g-7-7-7-7-7-7-7-7-7-7-7-7-7-
D-7-7-7-7-7-7-7-7-7-7-7-7-7-
A-5-5-5-5-5-5-5-5-5-5-5-5-5-
E--------------------------

e--------------------------
h--------------------------
g-7-7-7-------4-4-4-6-6-6---
D-7-7-7-5-5-5-4-4-4-6-6-6---
A-5-5-5-5-5-5-2-2-2-4-4-4---
E-------3-3-3--------------

D G H Cis
Na prvniho máje......

D G H Cis
Půda úrodná je.....

D G H Cis
A my už teď víme...

D G H Cis
Co si zasadíme......


D H D H Cis
Travicko zelená ty si moje potěšení

D G H D A
Travicko zelená ty si moje cha cha

D
cha


Ta vyhravka se da hrat i jinak ale tohle je pro me osobně pohodlnější hraješ na jednom mistě a nehoníš zbytečně ruku po hmatniku ...ale to je věc názoru..kdyby byl zajem mužu sem hodit i jinou verzi....



 
»
Tvoje obľúbené položky
Tvoje obľúbené položky
»
Nové albumy interpreta
Nové albumy interpreta
3xCD Alkehol Platinum collection
3xCD Platinum
collection
CD Alkehol R.u.m.
CD R.u.m.
CD Alkehol Do bezvedomi
CD Do bezvedomi
2xCD Alkehol 20 let na tahu
2xCD 20 let na tahu
CD Alkehol Pojdme se napit
CD Pojdme se napit
CD Alkehol Odpocivej v pokoji ...
CD Odpocivej v
pokoji ...

»
Najnovšie videá
Najnovšie videá

Alkehol - Traviko zelen - pili jsme a

Alkehol - Travika zelen (live)

Alkehol trviko zelen

Alkehol - Traviko zelen [ DVD Natoeno

Alkehol - Travika zelen [live @ Master

Alkehol - Travika Zelen (cover guitar)
»
Najnavštevovanejšie piesne
Najnavštevovanejšie piesne
Radek - akordy a text

V Bumbaru solo - taby

Buráky - akordy a text

Ruty šuty - akordy a text

Travičko zelená - taby

Pivo dělá hezká těla - akordy a text

Zmaštěnej - taby

Non stop - akordy a text

ŽIvot je krátkej - akordy a text

Blondýna - akordy a text

O chlastu (Podstatně lépe) - akordy a text

Pijeme s láskou - akordy

Alkehol - akordy a text

Černý muž - akordy a text

Alkohol - akordy a text

Piju jako duha - akordy a text

Hospodo nalejvej - akordy a text

Až se vrátím (100% dobře) - akordy a text

Travičko zelená - akordy a text

Nonstop - taby

viac




home | interpreti | register piesní | cd & dvd shop | pripomienky/nápady | kontakt | ochrana údajov | inzercia

TOPlist