O5 And Radeček

piesne (38)

  texty (34) / preklady (0)
  akordy (29) / taby (2)
  noty (1) / slideshow (0)

články (13)
fotogaléria
diskusia
videá
diskografia
v obchode
odkazy
koncerty
sťahuj



pridaj vlastný článok

O5 And Radeček:
O5 & Radeček budou opět hrát na střechách - Vydáno: 11.04.2017 17:19 v sekci Tiskové zprávy - Tisková zpráva SDÍLET: ... - musicserver.cz


O5 And Radeček:
O5 a Radeček zahrají na střeše Prahy, výtěžek věnují vojákům - Vydáno: 11.05.2016 10:17 v sekci Tiskové zprávy - Tisková zpráva SDÍLET: ... - musicserver.cz


O5 And Radeček:
Voxel vyráží na tři turné. Představí se sólově i s UDG a O5 & Radeček - Voxel vyráží na tři turné. Představí se sólově i s UDG a O5 & Radeček Vydán... - musicserver.cz


Kryštof:
O5 a Radeček nezažalujú Kryštof - Členovia českej kapely O5 a Radeček vyvrátili špekulácie médií, že chcú zažalo...


O5 And Radeček:
05 & Radeček vyvrací nepravdivé spekulace: - musicserver.c... - musicserver.cz


Tomáš Klus:
Kryštof čelí nařčení z plagiátorství, 'Cestu' údajně ukradli skupině
O5 & Radeček
- musicserver.c... - musicserver.cz


Kryštof:
Kauza Kryštof: O5 & Radeček Richarda Krajča nežaluje - Kauza Kryštof: O5 & Radeček Richarda Krajča nežaluje];" style="display: none;">  ... - IREPORT


O5 And Radeček:
O5 a Radeček - Opičí turné začne koncertem v přímém přenosu - o5_a_rade__ek.jpg 8. 2. 2013 - Hudební skupina O5 a Radeček vyrazí na jaře na ... - rockandpop.cz


O5 And Radeček:
Tak trošku opice bez výrazu - 12.11.2012 19:00, Ondřej Hricko Šumperská popová kytarovka O5 & Radeček v kv... - musicserver.cz


O5 And Radeček:
O5 & Radeček slaví 20 let muzicírování v Opičích horách - musicserver.cz


 

O5 And Radeček

Fanúšikov: 1



A B C Č D E F G H CH I J K L Ľ M N O P Q R S Š T U V W X Y Z Ž



ako:
O5 And Radeček - Praha - originílní taby (doufám)
O5 And Radeček - Praha - originílní taby (doufám)



tlač

edituj
Pesničku videlo 5672 návštevníkov.

Kvalita tabov : bez hodnotenia
Hodnotilo ľudí: 0 ohodnoť aj ty
Prispievateľ:

ADZI
 E ----0----0--0--- ----0----0--0--- ----3----3--3--- ----0----0--0---
H 3-----3---3--3-3 0-----0---0--0-0 3-----3---3--3-3 0-----0---0--0-0
G --2----2---2--2- --0----0---0--0- --0----0---0--0- --0----0---0--0-
D 0--------------- ---------------- ---------------- ----------------
A ---------------- ---------------- ---------------- ----------------
E ---------------- 0-----------02-- 3-----------2--- 0---------------

E ----0----0--0--- ----0----0--0--- ----3----3--3--- ----0----0--0---
H 3-----3---3--3-3 0-----0---0--0-0 3-----3---3--3-3 0-----0---0--0-0
G --2----2---2--2- --0----0---0--0- --0----0---0--0- --0----0---0--0-
D 0--------------- ---------------- ---------------- ----------------
A ---------------- ---------------- ---------------- ----------------
E ---------------- 0-----------02-- 3-----------2--- 0---------------

E ----0----0--0--- ----3----3--3--- ----0----0--0--- ----3------0----
H 3-----3---3--3-3 3-----3---3--3-3 0-----0---0--0-0 3-----3-2----2-2
G --2----2---2--2- --0----0---0--0- --1----1---1--1- --0-------2---2-
D 0--------------- ---------------- ---------------- ----------------
A ---------------- ---------------- ---------------- --------0-------
E ---------------- 3-----------2--- 0--------------- 3---------------

E ----0----0--0--- ----3----3--3--- ----3------0---- ----0----0--0---
H 3-----3---3--3-3 3-----3---3--3-3 3------0--0--0-0 1-----1---1--1-1
G --2----2---2--2- --0----0---0--0- --0---0--1----1- --0----0---0--0-
D 0--------------- ---------------- ---------------- ----------------
A ---------------- ---------------- ---------------- 3---------------
E ---------------- 3--------------- 3------0-------- ----------------

E ----0-----------
H 2-----2---------
G --2-----2-------
D ----------------
A 0---------------
E ----------------

 
»
Tvoje obľúbené položky
Tvoje obľúbené položky
»
Nové albumy interpreta
Nové albumy interpreta
CD O5 Radecek Mas me na svedomi
CD Mas me na
svedomi
CD O5 Radecek Pozdrav z opicich hor
CD Pozdrav z
opicich hor

»
Najnovšie videá
Najnovšie videá

O5 & Radeek Praha

O5 a Radeek feat. Mria rov - Vloup

05 & Radeek - Praha | CITY LIVE na radi

O5 a Radeek - M m na svdom

O5 a Radeek - Praha (live) umpersk Ma

O5 a Radeek - koncert Opiho turn ve
»
Najnavštevovanejšie piesne
Najnavštevovanejšie piesne
Vloupám se - akordy a text

Praha - akordy a text

Máš mě na svědomí - akordy

Kristián - akordy a text

O půl pátý - akordy a text

Praha - text

Máci - akordy a text

Praha - originílní taby (doufám) - taby

Po nohou - text

Praha - ztabovaná (podle not) - taby

Ondrova - akordy a text

Pavián - akordy a text

Pan Mrázek - akordy a text

4% (Teplé Blues) - akordy a text

Rút - akordy a text

Klakson - akordy a text

Šedý stíny - text

Po nohou - akordy a text

Záplaty - akordy a text

Vyšlapaný kruh - akordy a text

viac




home | interpreti | register piesní | cd & dvd shop | pripomienky/nápady | kontakt | ochrana údajov | inzercia

TOPlist