Horkýže Slíže

piesne (690)

  texty (369) / preklady (2)
  akordy (238) / taby (243)
  noty (0) / slideshow (0)

články (450)
fotogaléria
diskusia
videá
diskografia
v obchode
odkazy
koncerty
sťahuj



pridaj vlastný článok

Horkýže Slíže:
Horkýže Slíže zverejnili trailer na novú skladbu Nervy! - SHARE TWEET SHARE EMAIL COMMENTS Horkýže Slíže je slovenská punk rocková hudobná ... - music-zone.eu


Horkýže Slíže:
Horkýže Slíže odštartovali turné Pustite Karola vypredanými koncertami v
Bratislave a v Nitre!
- Skvelá šou, vypredané haly a nadšení fanúšikovia! Tak vyzerali prvé dva koncert... - livemusic.sk


Horkýže Slíže:
Horkýže Slíže majú novú basgitaristku - ...


Maťo Ďurinda:
Festival Topfest zverejňuje prvých interpretov 15- - Festival Topfest zverejňuje prvých interpretov 15-teho ročníka | Autor: Pavol Karell... - ahudba.sk


Horkýže Slíže:
Horkýže Slíže: Hráli jsme v Česku i za cesťák - V září vydali Horkýže Slíže desku Pustite Karola a vyšla kniha s názvem Kontiňu... - denik.cz


Horkýže Slíže:
Horkýže Slíže oslávia 25 rokov na scéne na turné Pustite Karola tour
2018!
- Pustite Karola! Žiada skupina Horkýže Slíže na najnovšom albume s rovnomenným n... - livemusic.sk


Horkýže Slíže:
Horkýže Slíže vyrazí na tour ke čtvrt století - Horkýže Slíže vyrazí na tour ke čtvrt stoletíFotogalerie (2) Autor: Iva Bokov... - abradio.cz


Horkýže Slíže:
zakázanÝovoce bojuje proti šikaně novým videoklipem a turné s Horkýže
Slíže
- Vydáno: 30.09.2017 08:39 v sekci Tiskové zprávy - Tisková zpráva SDÍLET: ... - musicserver.cz


Horkýže Slíže:
Horkýže Slíže sa naštvali a nahrali facku pre nás všetkých - včera o 12:10 | redakcia Svoj nový album Pustite Karola sprístupnili zadarmo na You... - zoznam.sk


Horkýže Slíže:
Horkýže Slíže se na "Pustite Karola" ani po čtvrtstoletí punk-rocku
nebojí
- Vydáno: 15.09.2017 14:00 v sekci Recenze - Ondřej Hricko Pět let po vydání "St. Mar... - musicserver.cz


 

Horkýže Slíže

Fanúšikov: 204



A B C Č D E F G H CH I J K L Ľ M N O P Q R S Š T U V W X Y Z Ž



ako:
Horkýže Slíže - Animals
Horkýže Slíže - Animals

tlač

edituj
Pesničku videlo 658 návštevníkov.

Kvalita tabov : bez hodnotenia
Hodnotilo ľudí: 0 ohodnoť aj ty
Prispievateľ:

neppo
Horkyze slize - Animals

Sloha:

E|----------(3x)|--------------|
B|--------------|--------------|
G|-----4--3-----|--------------|
D|--6--4--3--4--|--6--4--3--2--|
A|--6--2--1--4--|--6--4--3--2--|
E|--4--------2--|--4--2--1--0--|


Refren:

E|----------------
B|----------------
G|----------9--8--
D|--6--(9)--9--8--
A|--6--(9)--7--6--
E|--4--(7)--------

Riff po 1. refrene:

E|-----------------------------------------------------
B|-----------------------------------------------------
G|---------------------16------16--------------16------
D|--18--16--15--14---------18------18--16--18------18--
A|-----------------------------------------------------
E|-----------------------------------------------------

Riff po 2. refrene + riff po 1. refrene
E|------------------
B|------------------
G|------16--15------
D|--18----------16--
A|------------------
E|------------------

Outro:
E|--------------------------------------------------
B|----------16----------16----------16--17--16------
G|------16----------16----------16--------------16--
D|--18----------18----------18----------------------
A|--------------------------------------------------
E|--------------------------------------------------

PM v slohach a refrenoch a vyhravky uz vycitite

 
»
Tvoje obľúbené položky
Tvoje obľúbené položky
»
Nové albumy interpreta
Nové albumy interpreta
CD Horkyze Slize Pustite karola!
CD Pustite
karola!
3xCD Horkyze Slize Platinum
3xCD Platinum
CD Horkyze Slize St. mary huana ganja
CD St. mary
huana
ganja
DVD Horkyze Slize Necenzurovane
DVD Necenzurov
ane
CD Horkyze Slize 54 dole hlavou
CD 54 dole
hlavou
CD Horkyze Slize Ukaz tu tvoju zoo
CD Ukaz tu
tvoju zoo
»
Najnovšie videá
Najnovšie videá

Horkýže Slíže - Ratatata

Horkýže Slíže - Pustite Karola (cel

Horkýže Slíže - Kozy, Husle, Rooney

Horkýže Slíže - Nervy [oficiálne ly

Horkýže Slíže - Pustite Karola [Cel

Horkýže Slíže - Keď budeš na compe

»
Najnavštevovanejšie piesne
Najnavštevovanejšie piesne
Horná Dolná - akordy

L. A. G. song - akordy a text

Nazdar - text

Mám v pi*i na lehátku - text

Nazdar - správně - akordy a text

Mam v p*** na lehatku 100% - akordy

Horkýže Slíže - Horna Dolna Správne! - akordy a text

Horná Dolná - akordy a text

Malá Žužu - akordy a text

Horna Dolna Správne! - akordy a text

My fucking brother - akordy a text

Silný refrén - spravne - akordy a text

Lesbian\'s and Gay\'s Song - akordy a text

R n′B Soul - akordy a text

Vójak - akordy a text

Mám pi*i na lehátku - akordy

Cigarety - akordy a text

A ja sprostá - akordy a text

Ukaz tu tvoju Zoo - akordy a text

Emanuel Bacigala - akordy a text

viac




home | interpreti | register piesní | cd & dvd shop | pripomienky/nápady | kontakt | ochrana údajov | inzercia

TOPlist