Mandrage

piesne (79)

  texty (58) / preklady (0)
  akordy (34) / taby (10)
  noty (0) / slideshow (0)

články (41)
fotogaléria
diskusia
videá
diskografia
v obchode
odkazy
koncerty
sťahuj



pridaj vlastný článok

Mandrage:
Mandrage získali na léčbu nemocného chlapce 230 tisíc - /**/ více tiscali.cz ... - IREPORT


Mandrage:
Mandrage pomohou chlapci s dětskou mozkovou obrnou - /**/ více tiscali.cz ... - IREPORT


Mandrage:
Okoř se šťávou oslaví 17 let s No Name, Mandrage, Wohnout i Jelenem - /**/ více tiscali.cz ... - IREPORT


Mandrage:
Soutěž o nejlepší hudební design: předvedou se Mandrage, Zakázaný ovoce i
the.switch
- /**/ více tiscali.cz ... - IREPORT


Mandrage:
Mandrage poprvé akusticky. Na turné je doprovodí i smyčcové kvarteto - /**/ více tiscali.cz ... - IREPORT


Mandrage:
Párty nekončí: Mandrage ukáží své Silulety v dalších 12 městech - /**/ více tisc... - IREPORT


Mandrage:
Mandrage pokračují v koncertní šňůře podzimním turné. Přidávají dvanáct koncertů - Mandrage pokračují v koncertní šňůře podzimním turné. Přidávají dvanáct koncertů Vydán... - musicserver.cz


Tomáš Klus:
Vizovické Trnkobraní roztančí Kryštof, Tomáš Klus, Mandrage i Tři sestry - /**/ více tisc... - IREPORT


Tomáš Klus:
Hrady CZ hlásí: Tomáš Klus, Mandrage, Wanastowi Vjecy i Olympic - /**/ více tisc... - IREPORT


Dan Bárta:
V Prahe rozdali ceny Anděl, dve sošky si odniesli Bratři Orffové - Formácia Bratři Orffové si v stredu z pražského Hudobného divadla Karlín odniesla dve cen...


 

Mandrage

Fanúšikov: 20



A B C Č D E F G H CH I J K L Ľ M N O P Q R S Š T U V W X Y Z Ž



ako:
Mandrage - Šrouby a matice - sólo
Mandrage - Šrouby a matice - sólo



tlač

edituj
Pesničku videlo 15885 návštevníkov.

Kvalita tabov : bez hodnotenia
Hodnotilo ľudí: 0 ohodnoť aj ty
Prispievateľ:

Earthworm
Některé tóny, jako označená část <---> nejsou úplně stopro, 
ale vzhledem k rychlosti se to ztratí. Jinak doladit dle ucha ;-)


E|------------------------------------12/14\12-------------------|
H|--------5--5--5---------------------12/14\12----12h14-12-------|
G|-2------4b-4b-4b-2h4p2-----------------------------------13----|
D|-2----------------------4-----------------------------------14-|
A|------------------------------2--------------------------------|
E|---------------------------2b-0--------------------------------|




<----------------------------->
E|---7-7----7-7------7-7-7-7-7---------12-11--|
H|----------------------------------10--------|
G|9b-----9b------9b------------9/11-----------|
D|--------------------------------------------|
A|--------------------------------------------|
E|--------------------------------------------|


E|----------10-----------------12--------|
H|-------------10-----------12----12-----|
G|-------11-------11-----13----------13--|
D|----12--------------14-----------------|
A|-12------------------------------------|
E|---------------------------------------|


b - bend on (vytažení tónu)
r - release (uvolnění bendu)
p - pull off (odtrh)
h - hammer on (příklep)

 
»
Tvoje obľúbené položky
Tvoje obľúbené položky
»
Nové albumy interpreta
Nové albumy interpreta
2xCD Mandrage Potme jsou vsechny.../dvd
2xCD Potme jsou
vsechny.../dvd
2xCD Various Megahits best of 2015
2xCD Megahits best of
2015
2xCD Various Top20.cz 2015/2
2xCD Top20.cz 2015/2
2xCD Various Megahits 2015/3
2xCD Megahits 2015/3
CD Mandrage Siluety
CD Siluety
2xCD Various Bravo hits 2013/3
2xCD Bravo hits
2013/3
»
Najnovšie videá
Najnovšie videá

Mandrage - Šrouby a matice (oficiální ly

Mandrage - Šrouby a matice

Mandrage Šrouby a Matice

Mandrage - Šrouby a matice (český slavík

Mandrage-Šrouby a matice+Text

Mandrage - Šrouby a matice - Sazka Fotba
»
Najnavštevovanejšie piesne
Najnavštevovanejšie piesne
Šrouby a matice - akordy a text

Brouci - akordy a text

Hledá se žena - akordy a text

Ona se smála - akordy

Siluety - akordy a text

Františkovy lázně - akordy a text

Tanči dokud můžeš - akordy a text

Šrouby a matice - akordy a text

Brouci - akordy a text

Už mě víckrát neuvidíš - akordy a text

viac




home | interpreti | register piesní | cd & dvd shop | pripomienky/nápady | kontakt | ochrana údajov | inzercia
Copyright © Pavol Bacigál, 2000-2015. Všetky práva vyhradené.
TOPlist