Queen

piesne (644)

  texty (347) / preklady (174)
  akordy (124) / taby (93)
  noty (1) / slideshow (0)

články (153)
fotogaléria
diskusia
videá
diskografia
v obchode
odkazy
koncerty
sťahuj



pridaj vlastný článok

Adam Lambert:
Dokument o Adamovi Lambertovi a Queen uvidíme v apríli - Dokument o Adamovi Lambertovi a Queen uvidíme v apríli Televízia ABC odvysiela 29. ap... - rocker.sk


Lady Gaga:
Zájem o Queen a Lady Gaga po Oscarech vzrostl, v rádiích už zase řádí Ava
Max
- Zájem o Queen a Lady Gaga po Oscarech vzrostl, v rádiích už zase řádí Ava Max V... - musicserver.cz


Queen:
Nová DVD: Bohemian Rhapsody a Overlord - Megahit českých kin Bohemian Rhapsody je oslavou hudební skupiny Queen a jejího front... - novinky.cz


Foo Fighters:
Record Store Day se blíží, rarity chystají Queen i Foo Fighters - Record Store Day se blíží, rarity chystají Queen i Foo Fighters Vydáno: 01.03.201... - musicserver.cz


Bradley Cooper:
Neprehliadnuteľní muži z oscarovej noci: Ružový Aquaman, hrozný Pharrell
Williams a herec v sukni
- Neprehliadnuteľní muži z oscarovej noci: Ružový Aquaman, hrozný Pharrell Williams a... - cas.sk


Queen:
Královna je mrtvá, ať žije královna. Queen se museli v albovém
žebříčku sklonit před Arianou Grande
- Královna je mrtvá, ať žije královna. Queen se museli v albovém žebříčku sklonit... - musicserver.cz


Ava Max:
Queen posedmé kralují albům, Ava Max se vrací na vrchol v rádiích - Queen posedmé kralují albům, Ava Max se vrací na vrchol v rádiích Vydáno: 12.02... - musicserver.cz


Freddie Mercury:
Úspěch filmu o kapele Queen nikdo nečekal. Pro Čechy je splněným snem,
tvrdí kritici
- před 13 hodinami Trailer k filmu Bohemian Rhapsody | Video: 20th Century Fox / CinemA... - aktualne.cz


Brian May:
Brian May přivítal nový rok singlem New Horizons - Brian May vydal na Nový rok sólový singl New Horizons, který v daném formátu předs... - frontman.cz


Queen:
LP po dvou letech znovu dobyla rádia, Queen v albovém žebříčku
přeskočili Lucii
- Vydáno: 03.01.2019 16:37 v sekci České hitparády - Josef Martínek Přes vánoční ... - musicserver.cz


 

Queen

Fanúšikov: 90



A B C Č D E F G H CH I J K L Ľ M N O P Q R S Š T U V W X Y Z Ž



ako:
Queen - A Kind Of Magic-bass
Queen - A Kind Of Magic-bass

tlač

edituj
Pesničku videlo 3844 návštevníkov.

Kvalita tabov : bez hodnotenia
Hodnotilo ľudí: 0 ohodnoť aj ty
Prispievateľ:

Johny
  *** Autor textu: Roger Taylor *** Autor hudby: Roger Taylor
G|----------------|
D|----------------|
A|----------------|
E|5---5---5-0-2-0-|

G|----------------|----------------|----------------|----------------|
D|----------------|----------------|----------------|----------------|
A|----------------|--------------0-|2---2---2-------|2---2---2-------|
E|5---5---5-0-2-0-|5---5---5-0-2---|----------4-2-4-|----------4-2-4-|

G|----------------|----------------|----------------|----------------|
D|----------------|----------------|----------------|----------------|
A|5---5---5-------|5---5---5-------|----------------|----------------|
E|----------7-5-7-|----------7-5-7-|5---5---5-0-2-0-|5---5---5-0-2-0-|


G|----------------|----------------|----------------|----------------|
D|----------------|----------------|----------------|----------------|
A|----------------|----------------|2---2---2-------|2---2---2-------|
E|5---5---5-0-2-0-|5---5---5-0-2-0-|----------4-2-4-|----------4-2-0-|

G|----------------|----------------|----------------|----------------|
D|----------------|----------------|----------------|--74-2---------|
A|5---5---5-------|5---5---5-------|----------------|----------4---2-|
E|----------7-5-7-|----------7-5-7-|5---5---5-0-2-0-|0---------------|


G|----------------|----------------|----------------|----------------|
D|----------------|----------------|----------------|----------------|
A|----------------|----------------|5-------5-------|5-----5-5-4-2-0-|
E|2-----2-2-----22|2-----2-2-------|------5-------5-|----------------|

G|----------------|----------------|----------------|----------------|
D|----------------|4---------------|----------------|----------------|
A|--------------4-|------4--------5/7-7-7-7-7-7-7---|----------------|
E|2-----2-2-------|--------2-------|--------------7-|0-0-0-0-0-------|


G|-----------------|----------------|----------------|----------------|
D|*----------------|----------------|----------------|---------------*|
A|*5-5-----5-5-----|5-5-----5-5-----|----------------|---------------*|
E|-----7-5-----7-5-|----7-5-----7-5-|5-5-2-0-5-5-2-0-|5-5-2-0-5-5-2-0-|

G|----------------|----------------|----------------|----------------|
D|----------------|----------------|----------------|----------------|
A|----------------|----------------|5-5-----5-5-----|5-5-----5-5-----|
E|0---0-0-0-0-0-0-|3-3-3-3-3-3-3-3-|----7-5-----7-5-|----7-5-----7-5-|


G|----------------|----------------|
D|----------------|--------4-2-----|
A|----2-4-----2-4-|----2-4-----4-2-|
E|0-0-----0-0-----|0-0------------0|

G|----------------|----------------|----------------|----------------|
D|----------------|----------------|----------------|----------------|
A|----------------|----------------|2---2---2-------|2---2---2-------|
E|5---5---5-0-2-0-|5---5---5-0-2-0-|----------4-2-4-|----------4-2-4-|


G|----------------|----------------|----------------|----------------|
D|----------------|----------------|----------------|----------------|
A|5---5---5-------|5---5---5-------|----------------|----------------|
E|----------7-5-7-|----------7-5-0-|5---5---5-0-2-0-|5---5---5-0-2-0-|


G|----------------|----------------|----------------|----------------|
D|----------------|----------------|----------------|----------------|
A|----------------|----------------|2---2---2-------|2---2---2-------|
E|5---5---5-0-2-0-|5---5---5-0-2-0-|----------4-2-4-|----------4-2-4-|

G|----------------|----------------|----------------|----------------|
D|----------------|----------------|----------------|----------------|
A|5---5---5-------|5---5--55-------|----------------|----------------|
E|----------7-5-7-|----------0-2-3-|5---5--55-0-2-0-|5---5--55-0-2-0-|

G|----------------|----------------|----------------|----------------|
D|----------------|----------------|----------------|----------------|
A|5---5---5-------|5---5--55-------|----------------|----------------|
E|----------7-5-7-|----------7-5-7-|5-5-2-0-5-5-2-0-|5-5-2-0-5-5-2-0-|


G|----------------|----------------|----------------|----------------|
D|----------------|----------------|----------------|----------------|
A|5---5---5-------|5---5---5-------|----------------|----------------|
E|----------7-5-7-|----------7-5-7-|5-5-2-0-5-5-2-0-|5-5-2-0-5-5-2-0-|


G|----------------|----------------|----------------|----------------|
D|----------------|----------------|----------------|----------------|
A|5---5--55-------|5---5---5-------|----------------|----------------|
E|----------5-7-5-|-------5--5-7-5-|5---5---5-0-2-0-|5---5--55-0-7-5-|


G|----------------|----------------|----------------|----------------|
D|----------------|----------------|----------------|----------------|
A|5---5---5-------|5---5---5-------|----------------|----------------|
E|----------7-5-7-|-------5--5-7-5-|5---5--55-0-2-0-|5---5--55-0-2-0-|

G|----------------|----------------|----------------|----------------|
D|----------------|----------------|----------------|----------------|
A|----------2-4-2-|------------2-3-|5---5--55-------|5---5---5-----5-|
E|0---0---0-------|3---3---3-3-----|----------5-7-5-|-------5--5-7---|


G|----------------|----------------|
D|----------------|--4---2---------|
A|----------------|----------4-2-4-|
E|0---0---0---0---|0---------------|


G|-----------------|----------------|----------------|----------------|
D|*----------------|----------------|----------------|---------------*|
A|*5-5-----5-5-----|5-5-----5-5-----|----------------|---------------*|
E|-----7-5-----7-5-|----7-5-----7-5-|5-5-2-0-5-5-2-0-|5-5-2-0-5-5-2-0-|


G|----------------|----------------|----------------|----------------|
D|----------------|----------------|----------------|----------------|
A|----------------|----------------|5---5---5-------|5---5---5-------|
E|0---0---0---0---|3---3--03---3-3-|----------7-5-7-|-------5--7-5---|

G|-----------------|---------------|----------------|----------------|
D|-----------------|---------------|----------------|----------------|
A|7---7---7--10/14-|---------------|5-5-----5-5-----|5-5-----5-5-----|
E|-----------------|0--------------|----7-5-----7-5-|----7-5-----7-5-|

G|----------------|----------------|----------------|----------------|
D|----------------|----------------|----------------|----------------|
A|----------------|----------------|5-5-----5-5-----|5-5-----5-5-----|
E|5-5-2-0-5-5-2-0-|5-5-2-0-5-5-2-0-|----7-5-----7-5-|----7-5-----7-5-|

G|----------------|-------------|-----------------|
D|----------------|-------------|-----------------|
A|----------------|-------------|-----------------|
E|5-5-2-0-5-5-2-0-|5------------|-----------------|


Repeat the following until fade at end

G|----------------|----------------|----------------|----------------|
D|----------------|----------------|----------------|----------------|
A|5-5-----5-5-----|5-5-----5-5-----|----------------|----------------|
E|----7-5-----7-5-|----7-5-----7-5-|5-5-2-0-5-5-2-0-|5-5-2-0-5-5-2-0-|

Tabbed by Pete Cosgrove and PD.

 
»
Tvoje obľúbené položky
Tvoje obľúbené položky
»
Najnovšie videá
Najnovšie videá

[Indie Dance] - LVTHER - Some Kind Of Ma

Coldplay - Magic (Official Video)

What Is Your MAGIC Power?

「 TM 」10 Minutes of Magi Heaven | 5k

New Zach King Magic Vines Compilation 20

Coldplay - Magic (Official Audio)

»
Najnavštevovanejšie piesne
Najnavštevovanejšie piesne
We Are The Champions - akordy a text

Bohemian Rhapsody - akordy a text

Bohemian Rhapsody - SK - preklad

Love Of My Life-koncertná Verzia - akordy a text

Show Must Go On - akordy a text

I Want To Break Free - akordy a text

Show Must Go On - noty

We Will Rock You.....správně - akordy a text

Too Much Love Will Kill You - akordy a text

Don't stop me now - akordy a text

Crazy Little Thing Called Love - akordy a text

Show Must Go On, Real Chords - akordy a text

Bohemian Rapsody - akordy

Love of my life - akordy

Radio Gaga - akordy a text

Under Pressure - akordy a text

Dont Stop Me Now - akordy a text

I Want It All - akordy a text

Who Wants To Live Forever - preklad

I Want To Break Free - preklad

viac

»
Nové albumy interpreta
Nové albumy interpreta
18xVINYL Queen Complete studio album [vinyl]
18xVINYL Complete
studio
album
[vinyl]
2xVINYL Queen Bohemian rhapsody =ost= [vinyl]
2xVINYL Bohemian
rhapsody
=ost=
[vinyl]
CD Queen Greatest hits 2
CD Greatest
hits 2
QB Queen Crest
QB Crest
BOARD Queen Queen (monopoly coll)
BOARD Queen
(monopoly
coll)
CD Queen Bohemian rhapsody =ost=
CD Bohemian
rhapsody
=ost=



home | interpreti | register piesní | cd & dvd shop | pripomienky/nápady | kontakt | ochrana údajov | inzercia

TOPlist