Atreyu

piesne (88)

  texty (54) / preklady (4)
  akordy (0) / taby (30)
  noty (0) / slideshow (0)

články (2)
fotogaléria
diskusia
videá
diskografia
v obchode
odkazy
koncerty
sťahuj



pridaj vlastný článok

Atreyu:
Zpěvák kapely Atreyu se angažuje v novém projektu - musicserver.cz


Atreyu:
Kapela Atreyu si dáva pauzu - Kapela Atreyu si dáva pauzu Päťčlenná metalcoreová formácia z Kalifornie to ozná...


Atreyu:
Detaily o novej doske Atreyu - kvakpunkrock.cz


 

Atreyu

Fanúšikov: 7



A B C Č D E F G H CH I J K L Ľ M N O P Q R S Š T U V W X Y Z Ž



ako:
Atreyu - A Vampires Lament
Atreyu - A Vampires Lament

tlač

edituj
Pesničku videlo 1634 návštevníkov.

Kvalita tabov : bez hodnotenia
Hodnotilo ľudí: 0 ohodnoť aj ty
Prispievateľ:

A.K.tm
Tuning: Drop C (C-G-C-F-A-D)
"I'm not entirely sure about the 3rd verse."


Intro
Guitar 1
D||---------------------------------------------------------------------|
A||---------------------------------------------------------------------|
F||-------------------------222-333-222-0-------2-0---0-----------------|
C||-0--------------------------------------0-0------3---3-2-3-2-0-2-0---|
G||-0--------------------------------------0-0------------------------3-|
C||-0--------------------------------------0-0--------------------------|

Guitar 2
D||---------------------------------------------------------------------|
A||---------------------------------------------------------------------|
F||---------------------------------------------5-3-2-3-2-0-2-0---0-----|
C||-0-----------------------000-111-333-1--0-0------------------3---3-2-|
G||-0--------------------------------------0-0--------------------------|
C||-0--0-0-0--0-0-0--0-0-0-----------------0-0--------------------------|
PM |------------------|

Verse 1
Guitar 1 (all of this x2)
D|------------------------------------------------------------|
A|o-----------------------------------------------------------|
F|-----------------------222-333-222-000----------------------|
C|------------------------------------------------------------|
G|o-----------------------------------------------------------|
C|--0-0-0--0-0-0--0-0-0-------------------0-0-0--0-0-0--0-0-0-|
PM |-------------------| |-------------------|

1 & 3 2 4
|------------------|------------------|---------|
|-----------------o|---------444-333-o|-----4-3-|
|--333-222---------|-222-333----------|-2-3-----|
|----------333-000-|------------------|---------|
|-----------------o|-----------------o|---------|
|------------------|------------------|---------|

Guitar 2
D|----------------------------------------------------------------------------| x4
A|----------------------------------------------------------------------------|
F|------------------------------------------------------------000-222-333-222-|
C|----------------------000-111-333-111---------------------------------------|
G|----------------------------------------------------------------------------|
C|-0-0-0--0-0-0--0-0-0-------------------0-0-0--0-0-0--0-0-0------------------|
PM|-------------------| |-------------------|

Verse 2
Guitar 1 1 2
D|----------------------------------------------------|----------|---------| x2
A|o---------------------------------------------------|---------o|-----4-3-|
F|-----------------------2-3-2-0----------------------|-3-2------|-2-3-----|
C|----------------------------------------------------|-----3-0--|---------|
G|o---------------------------------------------------|---------o|---------|
C|--0-0-0--0-0-0--0-0-0-----------0-0-0--0-0-0--0-0---|----------|---------|
PM|-------------------| |-------------------|


Guitar 2
D|------------------------------------------------------------| x4
A|------------------------------------------------------------|
F|----------------------------------------------------0-2-3-2-|
C|----------------------0-1-3-1-------------------------------|
G|------------------------------------------------------------|
C|-0-0-0--0-0-0--0-0-0-----------0-0-0--0-0-0--0-0-0----------|
PM|-------------------| |-------------------|

Chorus
Guitar 1
D|-----------------------------------------------------------------------|
A|-----------------------------------------------------------------------|
F|-7--------5-------9-------7-------7--------5-------9------9s10-7-------|
C|-X--------X-------X-------X-------X--------X-------X------X--X-X-------|
G|-5--------3-------7-------5-------5--------3-------7------7s-8-5-------|
C|---0-0000---0-0-0---0-0-0---0-0-0---0-0000---0-0-0---0-0-0-------0-0-0-|
PM |------| |-----| |-----| |-----| |------| |-----| |----| |----|

D|--------------------------------------------------------------|
A|--------------------------------------------------------------|
F|-7--------5-------9-------7-------7--------5-------9-9-9-9s10-|
C|-X--------X-------X-------X-------X--------X-------X-X-X-X--X-|
G|-5--------3-------7-------5-------5--------3-------7-7-7-7s-8-|
C|---0-0000---0-0-0---0-0-0---0-0-0---0-0000---0-0-0------------|
PM |------| |-----| |-----| |-----| |------| |-----|

Guitar 2
D|-----------------------------------------------------------------------------|
A|-----------------------------------------------------------------------------|
F|-7--------9-------12-------10-------7--------9--------12------12s14-10-------|
C|-X--------X--------X--------X-------X--------X---------X-------X--X--X-------|
G|-5--------7-------10--------8-------5--------7--------10------10s12--8-------|
C|---0-0000---0-0-0----0-0-0----0-0-0---0-0000---0-0-0-----0-00----------0-0-0-|
PM |------| |-----| |-----| |-----| |------| |-----| |----| |-----|

D|------------------------------------------------------------------------|
A|------------------------------------------------------------------------|
F|-7--------9-------12-------10-------7--------9--------12-12-12-12-12s14-|
C|-X--------X--------X--------X-------X--------X---------X--X--X--X--X--X-|
G|-5--------7-------10--------8-------5--------7--------10-12-12-12-12s14-|
C|---0-0000---0-0-0----0-0-0----0-0-0---0-0000---0-0-0--------------------|
PM |------| |-----| |-----| |-----| |------| |-----|

Verse 3
Guitar 1
D|------------------------------------------------|
A|------------------------------------------------|
F|------------------------------------------------| x2
C|-----3-3--5-3-3-3h5p3-3------2-2--3-2-2-2h3p2---|
G|-5-5-5-5--5-5~-----------3-3-3-3--3-3~--------3-|
C|------------------------------------------------|
PM|---| |---|

D|------------------------------------------------|
A|------------------------------------------------|
F|-----5-5--7-5-5-5h7p5-5------4-4--5-4-4-4h5p4---| x2
C|-7-7-7-7--7-7~-----------5-5-5-5--5-5~--------5-|
G|------------------------------------------------|
C|------------------------------------------------|
PM|---| |---|

Guitar 2
D|----------------------------------------------|
A|-------------------------5-5-5--5-5-5---5-5-5-|
F|-7-7-7--7-7-7---7-7-7----5-5-5--5-5-5---5-5-5-| x2
C|-7-7-7--7-7-7---7-7-7----5-5-5--5-5-5---5-5-5-|
G|-5-5-5--5-5-5---5-5-5----7-7-7--7-7-7---7-7-7-|
C|-0-0-0--0-0-0---0-0-0----5-5-5--5-5-5---5-5-5-|
PM

D|----------------------------------------------|
A|----------------------------------------------|
F|-9-9-9--9-9-9---9-9-9----7-7-7--7-7-7---7-7-7-| x2
C|-7-7-7--7-7-7---7-7-7----5-5-5--5-5-5---5-5-5-|
G|-7-7-7--7-7-7---7-7-7----5-5-5--5-5-5---5-5-5-|
C|-7-7-7--7-7-7---7-7-7----5-5-5--5-5-5---5-5-5-|
PM

Chorus (Not sure if this is actually the chorus. The songs layout is weird)
Guitar 1
D|-1~--------3~-| |-1~--------3~-----------|
A|-1~--------3~-| |-1~--------1~-----------|
F|-2~--------4~-| x4 |-2~--------2~-----------|
C|-3~--------5~-| |-3~--------3~--------0~-|
G|--------------| |---------------------0~-|
C|--------------| |---------------------0~-|
PM

Guitar 2
D|-------3--1-0h1p0-----------5--3-2---| |-3~--------1~-----------|
A|-----1------------1-------3--------3-| |-1~--------1~-----------|
F|---2----------------2---4------------| x4 |-2~--------2~-----------|
C|-3--------------------5--------------| |-3~--------3~--------0~-|
G|-------------------------------------| |---------------------0~-|
C|-------------------------------------| |---------------------0~-|
PM

Bridge
Guitar 1
D|-------------------------------------------------|
A|-------------------------------------------------|
F|-------------------------------------------------|
C|-------------------------------------------------|
G|-555-8p5-8p5-555-8p5-8p5-333-7p3-7p3-333-7p3-7p3-|
C|-------------------------------------------------|
PM x6 (guitar 2 joins on 3rd time)

D|-------------------------------------------------|
A|-------------------------------------------------|
F|-------------------------------------------------|
C|-555-8p5-8p5-555-8p5-8p5-333-7p3-7p3-333-7p3-7p3-|
G|-------------------------------------------------|
C|-------------------------------------------------|
PM

Guitar 2
D|-------------------------------------------------|
A|-------------------------------------------------|
F|-------------------------------------------------|
C|-333-7p3-7p3-333-7p3-7p3-222-5p2-5p2-222-5p2-5p2-|
G|-------------------------------------------------|
C|-------------------------------------------------|
PM x4

D|-------------------------------------------------|
A|-------------------------------------------------|
F|-333-7p3-7p3-333-7p3-7p3-222-5p2-5p2-222-5p2-5p2-|
C|-------------------------------------------------|
G|-------------------------------------------------|
C|-------------------------------------------------|
PM

Ending
Guitar 1
D|--------------------------------------------------------| |----||
A|--------------------------------------------------------| x4 |----||
F|-7--7-7-7-7-7--5--5-5-5-5-5--3--3-3-3-3-3--5--5-5-5-5-5-| |-7~-||
C|-7--7-7-7-7-7--5--5-5-5-5-5--3--3-3-3-3-3--5--5-5-5-5-5-| |-7~-||
G|-5--5-5-5-5-5--3--3-3-3-3-3--1--1-1-1-1-1--3--3-3-3-3-3-| |-5~-||
C|--------------------------------------------------------| |----||
PM

Guitar 2 1
D|-------------------------------------|----------------------------------------------|
A|o------------------------------------|---------------------------------------------o|
F|--7--7-7--7-7-7777--9--9-9--9-9-9999-|-10--10-10--10-10-10101010--9--9-9--9-9-9999--|
C|--X--X-X--X-X-XXXX--X--X-X--X-X-XXXX-|--X---X--X---X--X--X-X-X-X--X--X-X--X-X-XXXX--|
G|0-5--5-5--5-5-5555--7--7-7--7-7-7777-|--8---8--8---8--8--8-8-8-8--7--7-7--7-7-7777-o|
C|-------------------------------------|----------------------------------------------|
PM
2
|------------------------------------------------------|
|------------------------------------------------------|
|-14--14-14--14-14-14141414--12--12-12--12-12-12121212-|
|--X---X--X---X--X--X-X-X-X---X---X--X---X--X--X-X-X-X-|
|-12--12-12--12-12-12121212--10--10-10--10-10-10101010-|
|------------------------------------------------------|
PM

|---------------------------------------------------------------------------------|
|---------------------------------------------------------------------------------|
|-11--11-11--11-11-11111111--12--12-12--12-12-12121212--14--14-14--14-14-14141414-|
|--X---X--X---X--X--X-X-X-X---X---X--X---X--X--X-X-X-X---X---X--X---X--X--X-X-X-X-|
|--9---9--9---9--9--9-9-9-9--10--10-10--10-10-10101010--12--12-12--12-12-12121212-|
|---------------------------------------------------------------------------------|
PM

|---------------------------| |-----||
|---------------------------| |-----||
|-12--12-12--12-12-12121212-| x2 |-11~-||
|--X---X--X---X--X--X-X-X-X-| |--X~-||
|-10--10-10--10-10-10101010-| |--9~-||
|---------------------------| |-----||
PM

 
»
Tvoje obľúbené položky
Tvoje obľúbené položky
»
Najnovšie videá
Najnovšie videá

A Vampire's Lament - Atreyu (Full With L

Atreyu - A vampire´s lament

A Vampires Lament - Atreyu (Guitar Cover

Atreyu - A Vampire's Lament / Bleeding M

A Vampire's Lament - Atreyu - Underworld

Atreyu-A Vampire's Lament with lyrics

»
Najnavštevovanejšie piesne
Najnavštevovanejšie piesne
»
Nové albumy interpreta
Nové albumy interpreta
CD+DVD Atreyu In our wake
CD+DVD In our
wake
CD Atreyu In our wake
CD In our
wake
2xVINYL Atreyu Best of atreyu [vinyl]
2xVINYL Best of
atreyu
[vinyl]
CD Atreyu Long live
CD Long live
CD Atreyu Lead sails paper anchor
CD Lead sails
paper
anchor
CD Atreyu The best of
CD The best
of



home | interpreti | register piesní | cd & dvd shop | pripomienky/nápady | kontakt | ochrana údajov | inzercia

TOPlist