Morčata Na Útěku

piesne (86)

  texty (61) / preklady (0)
  akordy (43) / taby (7)
  noty (1) / slideshow (0)

články (3)
fotogaléria
diskusia
videá
diskografia
v obchode
odkazy
koncerty
sťahuj



pridaj vlastný článok

Fragile:
Premiérový Senica fest ponúkne Polemic, AMO aj Iné Kafe - Začiatkom leta sa na letisku v Senici uskutoční prvý ročník hudobného Senica festu...


Morčata Na Útěku:
Morčata na útěku nešetří ve svých textech nikoho - denik.cz


Karpina:
Fajny Fest 2009 už v júni - TaM Production, Obec Kolonica a ODIS Music pripravili po úspešnom prvom ročníku letn... - Imrich Makó


 

Morčata Na Útěku

Fanúšikov: 9



A B C Č D E F G H CH I J K L Ľ M N O P Q R S Š T U V W X Y Z Ž



ako:
Morčata Na Útěku - Carmageddon
Morčata Na Útěku - Carmageddon

tlač

edituj
Rok vzniku: 2006
Pesničku videlo 6182 návštevníkov.

Kvalita tabov : bez hodnotenia
Hodnotilo ľudí: 0 ohodnoť aj ty
Prispievateľ:

Killerrajec
  *** Autor textu: Mor?ata *** Autor hudby: taky

je to jednoduche:



riff 1 předehra
e|------------------------------|

H|------------------------------|

G|------------------7--6--4-----|

D|--2--2--2--2------7--6--4-----|

A|--2--2--2--2------5--4--2-----|

E|--0--0--0--0------------------|



e|---------------------------------------|

H|---------------------------------------|

G|------------------7--6--4---2--2--2--4-|

D|--2--2--2--2------7--6--4---2--2--2--4-|

A|--2--2--2--2------5--4--2---0--0--0--2-|

E|--0--0--0--0---------------------------|

riff 2 sloka


e|-------------------------------------------------------15/13----|

H|----------------------------------------------------------------|

G|----------------------4--4--4--4--7--7--7--7--2--2--------------|

D|--2--2--2--2----------4--4--4--4--7--7--7--7--2--2--------------|

A|--2--2--2--2----------2--2--2--2--5--5--5--5--0--0--------------|

E|--0--0--0--0----------------------------------------------------|

riff 3 předrefren

e|----------------------------|

H|----------------------------|

G|---7--------5----2----------|

D|---7--------5----2----------|

A|---5--------3----0----------|

E|----------------------------|

riff 4 refren

e|------------------------------\------------------------------------------------------|

H|--------------------------------\----------------------------------------------------|

G|----------------------------------\--------------------------------------------------|

D|--5-5-5-5-4-4-4-4-2-4-2-4-2-4-------\-----5-5-5-5-2-2-2-2-7-7-7-7-9-9-9-9------------|

A|--5-5-5-5-4-4-4-4-2-4-2-4-2-4---------\---5-5-5-5-2-2-2-2-7-7-7-7-9-9-9-9------------|

E|--5-5-5-5-4-4-4-4-2-4-2-4-2-4-----------\-5-5-5-5-2-2-2-2-7-7-7-7-9-9-9-9------------|




a pak se porad opakuji riffy

 
»
Tvoje obľúbené položky
Tvoje obľúbené položky
»
Najnovšie videá
Najnovšie videá

Morčata na útěku - Carmageddon (Di d

Morčata na útěku - Carmageddon [HD]

Morčata na útěku - Konec řezníkú v

Morčata Na Ůtěku - Carmageddon

Morčata na útěku - Sbírka olešnick

Morčata na útěku - Klus (Di do prdel

»
Najnavštevovanejšie piesne
Najnavštevovanejšie piesne
Thajská - akordy a text

Hledá se děda ! - akordy

Vladislav - akordy a text

Severní Vietnam - akordy a text

Balda - akordy a text

Žlutá - akordy a text

Radek - akordy a text

1.anální - akordy a text

Máme je krátký - akordy a text

Tata zvraci - akordy a text

TwAyLaYt ^_^ MrTe Te MuCiNkAaAm PiCzO! - akordy a text

Pro Alánka - akordy

Rozumně uložená měna - akordy a text

Ožralá jsi jak ta kráva - akordy a text

Karel sral - akordy a text

Kakala -divokej bill plakala - akordy a text

Po kapkách - akordy a text

Tolik chuti a tak málo času - akordy a text

Polámal se mraveneček - akordy a text

Romídci - akordy

viac

»
Nové albumy interpreta
Nové albumy interpreta



home | interpreti | register piesní | cd & dvd shop | pripomienky/nápady | kontakt | ochrana údajov | inzercia

TOPlist