Törr

piesne (74)

  texty (49) / preklady (0)
  akordy (14) / taby (22)
  noty (0) / slideshow (0)

články (17)
fotogaléria
diskusia
videá
diskografia
v obchode
odkazy
koncerty
sťahuj



pridaj vlastný článok

Törr:
Preview - TÖRR: Přehlásku do názvu jsme si dali podle MOTÖRHEAD - Galerie Titánů patří 40 letům české legendy TÖRR. Ota Hereš na čtyřech straná... - spark-rockmagazine.cz


Arakain:
Hudební tipy 23. týden - Skupina Lucie 2014 autor: archiv zvětšit obrázek Setkání v hudbě Portré... - scena.cz


Flamengo:
Obľúbené vinylové platne III. - Pozrite si tretí prehľad klasických LP platní, ktoré mám doma a z rôznych dôv... - frenky.sk


Adagio Funebre:
Bývalý basák Törru přichází s novou kapelou ADAGIO FUNEBRE - Po dlouhých čtyřech letech přichází ústecká doom metalová formace ADAGIO FUNEBRE... - In Motion Agency


Törr:
Rozhovor s Otou Herešem (Törr) - Představovat kapelu TÖRR snad ani není třeba. Kdo z fanoušků, jenž se alespoň... - rockmag.cz


Törr:
Vlasta Henych vyměnil Törr za projekt Henych 666 a oslaví padesátiny - ireport.cz


Alkehol:
Noc plná hvězd s Mr. Big a Pro-Pain, Basinfirefest s Ill Niño, Benátská
noc s Clawfinger
- muzikus.cz


Törr:
TORR Inferno Nocturno/Live - TORR Inferno Nocturno/Live CD & CD/DVD 2010 Inferno Nocturno je nový radový albu...


Törr:
Törr připravili pekelné noční představení - musicserver.cz


Törr:
Törr otevírají pekelné brány - ireport.cz


 

Törr

Fanúšikov: 5



A B C Č D E F G H CH I J K L Ľ M N O P Q R S Š T U V W X Y Z Ž



ako:
Törr - Calibos-Part1
Törr - Calibos-Part1

tlač

edituj
Poznámka: Bohužel jenom Part1

Pesničku videlo 2989 návštevníkov.

Kvalita tabov : bez hodnotenia
Hodnotilo ľudí: 0 ohodnoť aj ty
Prispievateľ:

MARYLIN
  *** Autor textu: Dan Šakal *** Autor hudby: Dan Šakal
CALIBOS:INTRO,SLOKA,MEZIHRA


INTRO:(NA ZAČÁTKU JE RIFF TROUCHU JINÝ)
E------------------------------------------------
H------------------------------------------------
G--------11-10--------9--8------7--6------5--4---
D--------11-10--------9--8------7--6------5--4---
A---------9--8--------7--6------5--4------3--2---
E-0--0-0---------0--0------0--0------0--0--------

INTRO:(PO ITRU KTRÉ JE NA HOŘE)
E-------------------------------------------
H-------------------------------------------
G-----11-10------9--8------7--6------5--4---
D-----11-10------9--8------7--6------5--4---
A------9--8------7--6------5--4------3--2---
E-0--0------0--0------0--0------0--0--------

E----------------------------------
H----------------------------------
G---11-11----9-8-----7-6-----5-4---
D---11-10----9-8-----7-6-----5-4---
A----9-8-----7-6-----5-4-----3-2---
E-0-0----0-0-----0-0-----0-0-------


SLOKA
E------------------------------
H------------------------------
G----------------------11-10---
D-11-----10-----11-----11-10---
A-11-----10-----11-----9--8----
E-9--999-8--888-9--999---------


MEZIHRA
E-------------------
H-------------------
G-----------5--6----
D-5---------5--6----
A-5---------3--4----
E-3333--444---------

 
»
Tvoje obľúbené položky
Tvoje obľúbené položky
»
Najnovšie videá
Najnovšie videá

Calibos - Katyň (2010)

Brian - Výkřiky do tmy

Calibos - Drátofest (Náměšť na Han

Top5 Czech Metal bands

Daniel "Šakal" Švarc & GIWMÜR - "Jako

TITANIC - ŽELEZNÁ PANNA

»
Najnavštevovanejšie piesne
Najnavštevovanejšie piesne
»
Nové albumy interpreta
Nové albumy interpreta
CD Torr Black 'n' roll
CD Black 'n'
roll



home | interpreti | register piesní | cd & dvd shop | pripomienky/nápady | kontakt | ochrana údajov | inzercia

TOPlist