Peter Cmorik

piesne (126)

  texty (101) / preklady (4)
  akordy (50) / taby (9)
  noty (0) / slideshow (2)

články (369)
fotogaléria
diskusia
videá
diskografia
v obchode
odkazy
koncerty
sťahuj



pridaj vlastný článok

Peter Cmorik:
Druhý deň po sebe plno. Seredský amfiteáter hostil Olympic s Petrom
Cmoríkom
- SHARE TWEET SHARE EMAIL COMMENTS 22:jún 2018: Česká rocková legenda OLYMPIC sa ... - music-zone.eu


Peter Cmorik:
Čerstvý otec Cmorik prehovoril. Ďalšie DVOJIČKY - pred 19 hodinami Topstar.sk Hudba Alexandra Orviská ALEXANDRA ORVISKÁ redakcia/DK RED... - noviny.sk


Peter Cmorik:
EXKLUZÍVNE: Peter Cmorik si odniesol dvojičky domov - pred 17 hodinami Topstar.sk Hudba Alexandra Hinková ALEXANDRA HINKOVÁ redakcia/DK RED... - noviny.sk


Peter Cmorik:
Cmorikova partnerka je mesiac po pôrode opäť v nemocnici - pred 18 hodinami Topstar.sk Hudba redakcia/DK REDAKCIA/DK ARCHÍVNA REPORTÁŽ EMBED K... - noviny.sk


Peter Cmorik:
Peter Cmorik a Marek Wolf pokrstili spoločný album K výškam... - včera o 14:00 | redakcia Nevšedný autorský projekt špičkového slovenského spev... - zoznam.sk


Peter Cmorik:
Čerstvý otec dvojičiek Peter Cmorik bude hosťom koncertu American Divas v
Banskej Bystrici!
- SHARE TWEET SHARE EMAIL COMMENTS Americké spevácke trio American Divas odohrá svoj je... - music-zone.eu


Peter Cmorik:
EXKLUZÍVNE: Peter Cmorik sa stal dvojnásobným otcom! - 17.03.2018 Topstar.sk Hudba redakcia/DK REDAKCIA/DK ARCHÍVNA REPORTÁŽ EMBED KÓD S... - noviny.sk


Peter Cmorik:
Peter Cmorik sa chystá na otcovstvo: Hračka pre se - Peter Cmorik sa chystá na otcovstvo: Hračka pre seba aj pre synov" href="https://www.ca... - cas.sk


Peter Cmorik:
Peter Cmorik čaká prírastok do rodiny: A rovno dvojičky! - Peter Cmorik s priateľkou Danielou Peter Cmorik s priateľkou Danielou pred 17... - topky.sk


Tomáš Buranovský:
Košický zlatý poklad už pozná svojich víťazov - pred 3 hodinami | redakcia Najstaršia slovenská autorská pesničková súťaž už ... - zoznam.sk


 

Peter Cmorik

Fanúšikov: 17



A B C Č D E F G H CH I J K L Ľ M N O P Q R S Š T U V W X Y Z Ž



ako:
Peter Cmorik - Čakáme - Intro a solo
Peter Cmorik - Čakáme - Intro a solo

tlač

edituj
Rok vzniku: 2006
Pesničku videlo 5057 návštevníkov.

Kvalita tabov :
Hodnotilo ľudí: 2 ohodnoť aj ty
Prispievateľ:

andrejkooo
  *** Autor textu: Peter Cmorik *** Autor hudby: Peter Cmorik
Intro
Original je od C
e:------------------------------------------------------------------------
H:----------------------------------------------------------6-6-5---------
G:-----------------------------------------------------4------------------
D:10---10-10-9-9-7-7-5-5-----10-10-9-9-7-7-3-3----5-7-5-------------------
A:------------------------------------------------------------------------
E:------------------------------------------------------------------------

Solo
e:-----------------8-10-12--------------------15-12-10-----------------
H:-----10--13--10-----------------10--13--10-----------------10--13--10
G:--12-------------------------12------------------------12------------
D:---------------------------------------------------------------------
A:---------------------------------------------------------------------
E:---------------------------------------------------------------------

e:8-10-12--10-8-10---8------------8-10-12-13-12
H:-----------------------10--------------------
G:---------------------------------------------
D:---------------------------------------------
A:---------------------------------------------
E:---------------------------------------------

Konečné solo je čistá improvizácia

 
»
Tvoje obľúbené položky
Tvoje obľúbené položky
»
Najnovšie videá
Najnovšie videá

Peter Cmorik - Cakame (Prievidza 2008)

Film (2).wmv

Peter Cmorik - Cakame

Peter Cmorik Band: Čakáme 10.6.2010 TN

Peter Cmorik Band: Čakáme, ZV - Lesní

Peter Cmorík - Čakáme

»
Najnavštevovanejšie piesne
Najnavštevovanejšie piesne
Všichni jsme muzikanti - akordy

Mám ťa rád - akordy a text

Mám pocit - akordy a text

Dážď - akordy a text

Čo to znamená - akordy a text

Jedno si želám - akordy a text

Čo má prísť, príde - akordy a text

Premýšľam nad tebou - text

Premýšľam nad tebou - akordy a text

Dážď - presne 100% - akordy

Životné cesty - akordy a text

Spolu zostárnuť - akordy

Čakáme - akordy a text

Nemusíš sa báť - akordy a text

Ľúbim ťa - akordy a text

Nemusíš sa báť - text

Keď spíš - akordy

Mám ťa rád - text

Voláme do boja - text

Tulák - akordy a text

viac

»
Nové albumy interpreta
Nové albumy interpreta
CD Cmorik Peter K vyskam... [ & wolf marek ]
CD K
vyskam...
[ & wolf
marek ]
CD Cmorik Peter Best of
CD Best of
CD Cmorik Peter ...o tebe
CD ...o tebe
CD Cmorik Peter Zijem ako viem
CD Zijem ako
viem



home | interpreti | register piesní | cd & dvd shop | pripomienky/nápady | kontakt | ochrana údajov | inzercia

TOPlist