Al Stewart

piesne (7)

  texty (6) / preklady (0)
  akordy (6) / taby (1)
  noty (0) / slideshow (0)

články (3)
fotogaléria
diskusia
videá
diskografia
v obchode
odkazy
koncerty
sťahuj



pridaj vlastný článok




 

Al Stewart

Fanúšikov: 0



A B C Č D E F G H CH I J K L Ľ M N O P Q R S Š T U V W X Y Z Ž



ako:
Al Stewart - Carol
Al Stewart - Carol

tlač

edituj

export
agama

export
txt
Pesničku videlo 1891 návštevníkov.

Kvalita akordov : bez hodnotenia
Hodnotilo ľudí: 0 ohodnoť aj ty
Prispievateľ:

Rohl
Transpozícia:   [+1 +2 -1 -2]
Emi, G, B7, Emi, G, B7
G, B7, Emi, Ami, B7
Sometimes it seems unimaginable that you were ever any other way,
With your Amiwhite rose face and your Emiorphan clothes
AmiEmbroideried jeans and silver B7chains
B7
B7You're a well know face in all the hang out places where the lost souls
congregate
And you Amisit all night, but you Emitalk too fast,
I Amidon't know what you're trying to B7say.
EmiOh Carol, DI Cthink it's time for running to Emicover, uDh huCh
BeliEmieve me Dyou're Ceveryone and nobody's Emilover, uDh huCh
You've got a Amione way ticket for B7all your yesterEmidays

Harmony guitar fill

E|--------------2|3-2h3p2------------|-
B|----------4-5--|--------5----------|-
G|------2-4------|----------4-2------|0 Right Channel
D|2-4-5----------|--------------5-4-0|-
A|---------------|-------------------|-
E|---------------|-------------------|-

E|--------------5|7-5h7p5s3----------|-
B|------4-5-7-8--|----------3--------|0
G|----4----------|------------5s4-2-0|- Left Channel
D|4-5------------|-------------------|-
A|---------------|-------------------|-
E|---------------|-------------------|-
GReach down Dsilvery ship from the Emistars
I know you're thereA
GI know Dyou'll understand me you can Emitake me anywhereA
I Gknow you must be there.A

Guitar Solo Transcribed by Rob Watson rob@gcmac.demon.co.uk
E|--|G--------|-------------|D-----|-------------|Emi---------|
B|--|13b15---|--13b15-13-12|10---|--12b13-12-10|8--------|
G|--|--------|-------------|-----|-------------|---------|
D|12|--------|-------------|-----|-------------|---------|
A|--|--------|-------------|-----|-------------|---------|
E|--|--------|-------------|-----|-------------|---------|

E|Emi-----------------10---|Bmi-------------|-----------|
B|--(10pb)12r10b12---r10|8-7-7h8p7----|-----------|
G|----------------------|----------9-7|9b11r9p7---|
D|----------------------|-------------|--------9-9|
A|----------------------|-------------|-----------|
E|----------------------|-------------|-----------|

E|A-----------|Ami------------|Emi-------------|
B|----------7|7b8---------|-------------|
G|----6---9--|----5-----7-|7b9----------|
D|7-9--------|------------|-------------|
A|-----------|------------|-------------|
E|-----------|------------|-------------|

End Solo
E|--|G14b15---|--14b15-14-12|D10---|--12b14-12-8-|Emi7--------|
B|--|13b15---|--13b15-13-12|10---|--12b13-12-10|8--------|
G|11|--------|-------------|-----|-------------|---------|
D|12|--------|-------------|-----|-------------|---------|
A|--|--------|-------------|-----|-------------|---------|
E|--|--------|-------------|-----|-------------|---------|
E|--10b12-10-7|Bmi5---|-9b10-9-7|A5---|Ami-----7b8--7-5|Emi3--|solo-----starts-17p15------|
B|--10b12-10-8|7---|-8b10-8-7|5---|-----8b10-8-7|5--|15h17-------12h13|
G|------------|----|---------|----|-------------|---|-----------------|
D|------------|----|---------|----|-------------|---|-----------------|
A|------------|----|---------|----|-------------|---|-----------------|
E|------------|----|---------|----|-------------|---|-----------------|

The Harmony guitar part above continues for the rest of the song
E|G-----|-----------------|D-----------5------|10-14-12-10-17|
B|b15--|5b6r5-3-3s5s3----|---3---5s7---12-12|--------------|
G|-----|--------2s4s2-4-2|-2---2------------|--------------|
D|-----|-----------------|------------------|--------------|
A|-----|-----------------|------------------|--------------|
E|-----|-----------------|------------------|--------------|

E|Emi17b19-17-15-15h17p15----14b15|14-15-14b15r14-12----12|
B|---------------------17------|------------------15---|
G|-----------------------------|-----------------------|
D|-----------------------------|-----------------------|
A|-----------------------------|-----------------------|
E|-----------------------------|-----------------------|

E|Bmi12b14-12b14-12b14|12b14-12b14-12b14|Ar12-12-9-12-12b14|Ami12b15r12--12|
B|-----------------|-----------------|-----------------|----------12|
G|-----------------|-----------------|-----------------|------------|
D|-----------------|-----------------|-----------------|------------|
A|-----------------|-----------------|-----------------|------------|
E|-----------------|-----------------|-----------------|------------|

E|Emi-------------------------------|--------------------------------|
B|15b17r15-12--------------------|--------------------------------|
G|------------14-12-14p12------12|12------------------------------|
D|------------------------14-12--|12h14-12-------12---------------|
A|-------------------------------|---------12h14----14s12-10---10s|
E|-------------------------------|--------------------------------|

E|G--------------------|-----------------------|D---------------10|
B|---x-12-x-x-x-12-x-x|x-x-12-x-x-x-x-12h13-12|10---------------|
G|---x-12-x-x-x-12-x-x|x-x-12-x-x-x-x-12----12|11-11b12r11------|
D|---x-12-x-x-x-12-x-x|x-x-12-x-x-x-x-12h14-12|12----------12---|
A|14------------------|-----------------------|-----------------|
E|--------------------|-----------------------|-----------------|

E|D17b19-17-14-------|Emi------15|------17-------17------17-----17-----|
B|------------15-15-|17-17---|-17h20---17h20----17h19--17h20--17h20|
G|------------------|--------|-------------------------------------|
D|------------------|--------|-------------------------------------|
A|------------------|--------|-------------------------------------|
E|------------------|--------|-------------------------------------|

E|Bmi17-------17-------17-------17------17|14-17b19-17-14----14-17|
B|---17h20----17h19----17h20----17h20--|---------------17------|
G|-------------------------------------|-----------------------|
D|-------------------------------------|-----------------------|
A|-------------------------------------|-----------------------|
E|-------------------------------------|-----------------------|
fade
E|A19-19b20-19-17-15b17-----------------|
B|-------------------------------------|
G|-------------------------------------|
D|-------------------------------------|
A|-------------------------------------|
E|-------------------------------------|·

 
»
Tvoje obľúbené položky
Tvoje obľúbené položky
»
Najnovšie videá
Najnovšie videá

Al Stewart - CAROL

Al Stewart - Carol - 4/30/1977 - Capitol

Carol - Al Stewart |Lyrics|

Al Stewart with Dave Nachmanoff - Carol

Al Stewart / Carol

Al Stewart - Carol (live at Cropredy)

»
Akordové schémy
Akordové schémy
»
Najnavštevovanejšie piesne
Najnavštevovanejšie piesne
Year Of The Cat - akordy a text

Apple Cider Reconstitution - akordy a text

Carol - akordy a text

Modern Times - akordy a text

Whats Going On - akordy a text

On The Border - akordy a text

Down In He Cellars - taby

»
Nové albumy interpreta
Nové albumy interpreta
CD Stewart Al Ntroduction to
CD Ntroductio
n to
CD Stewart Al Time passages
CD Time
passages
5xCD Stewart Al Original album series vol 2
5xCD Original
album
series vol
2
DVD Al Stewart Live at musicladen 1979 (deluxe edition) (dvd+cd)
DVD Live at
musicladen
1979
(deluxe
edition)
(dvd+cd)
3xCD Best Of British Best of british
3xCD Best of
british
VINYL Stewart Al Year of the cat [vinyl]
VINYL Year of
the cat
[vinyl]



home | interpreti | register piesní | cd & dvd shop | pripomienky/nápady | kontakt | ochrana údajov | inzercia

TOPlist