Zoči Voči

piesne (92)

  texty (76) / preklady (0)
  akordy (30) / taby (8)
  noty (0) / slideshow (0)

články (2)
fotogaléria
diskusia
videá
diskografia
v obchode
odkazy
koncerty
sťahuj



pridaj vlastný článok

Zoči Voči:
Zoči Voči pokrstili nový album, na bratislavský koncert chystajú
prekvapenie!
- Pridal Marek Muzika 6. decembra 2017 Nitrianska skupina Zoči Voči zažila jeden z n... - music-zone.eu


Zoči Voči:
Zoči Voči vydávajú nový album a chystajú turné! - 5. septembra 2017 0 61 views Reklama Kapela Zoči Voči pripravuje nový album. ... - music-zone.eu


Arakain:
Záver leta s hudobnými legendami, ale aj mladou krvou česko-slovenskej
hudobnej scény na Červenom Kameni
- 24. augusta 2017 0 164 views Reklama Už 9. septembra sa v podhradí hradu Červ... - music-zone.eu


Rybičky 48:
Zoči Voči pred vydaním albumu vyrazia na turné s formáciou Rybičky 48 - včera o 17:00 | redakcia Kapela Zoči Voči pripravuje nový album. Ešte pred vydan... - zoznam.sk


Zoči Voči:
Zoči Voči vydá album a bude aj turné - ...


Zoči Voči:
Zoči Voči oslavuje leto uleteným klipom - ...


Zoči Voči:
Kapela ZOČI VOČI vydala nový singel Milión Ciest. V klipe si zahral aj Kuko
z Horkýže Slíže!
- 3. novembra 2016 marekmuzika 0 Comments Nitrianska formácia ZOČI VOČI opäť po... - music-zone.eu


Arakain:
Cibula Fest 2015 ohlásil ďalšie novinky - Organizátori Cibula Festu ohlásili ďalšie novinky, ktoré prinesie tento ročník. Ok...


Zoči Voči:
Zoči Voči hlásia prvý vypredaný koncert turné - Skupiny Zoči Voči v tomto období vydáva svoj akustický album s názvom „Audiohe... - duna


Zoči Voči:
Zoči Voči dealujú Audioheroín - Žiadny strach, nikto z členov tejto mladej populárnej skupiny sa nedal na drogy. Názo... - Agentúra DUNA


 

Zoči Voči

Fanúšikov: 34



A B C Č D E F G H CH I J K L Ľ M N O P Q R S Š T U V W X Y Z Ž



ako:
Zoči Voči - Otvor Si Oči
Zoči Voči - Otvor Si Oči

tlač

edituj
Pesničku videlo 5729 návštevníkov.

Kvalita tabov : bez hodnotenia
Hodnotilo ľudí: 0 ohodnoť aj ty
Prispievateľ:

worki
  *** Autor textu: Michal Žitňanský *** Autor hudby: Zoči Voči
00:00 - 00:10
e|------------------------------------------------------------------------|
B|----1-------1---------1-------1---------1-------1----------1-------1----|
G|1-3---3-1-3---1---1-3---3-1-3-------1-3---3-1-3--------1-3---3-1-3---3-1|
D|--------------------------------3-----------------1---------------------|
A|------------------------------------------------------------------------|
E|------------------------------------------------------------------------|

00:10 - 00:29
2X
e|------------------------------------------------------------------------|
B|---------4-----------------4-----------------4------------------4-------|
G|-5-3-5-3---5-3-5---5-3-5-3---5-3-5---5-3-5-3---5-3-5----5-3-5-3---5-3-5-|
D|------------------------------------------------------------------------|
A|------------------------------------------------------------------------|
E|------------------------------------------------------------------------|

0:55 - 01:05
e|------------------------------------------------------------------------|
B|----1-------1---------1-------1---------1-------1----------1-------1----|
G|1-3---3-1-3---1---1-3---3-1-3-------1-3---3-1-3--------1-3---3-1-3---3-1|
D|--------------------------------3-----------------1---------------------|
A|------------------------------------------------------------------------|
E|------------------------------------------------------------------------|

01:07 - 01:27
2X
e|------------------------------------------------------------------------|
B|---------4-----------------4-----------------4------------------4-------|
G|-5-3-5-3---5-3-5---5-3-5-3---5-3-5---5-3-5-3---5-3-5----5-3-5-3---5-3-5-|
D|------------------------------------------------------------------------|
A|------------------------------------------------------------------------|
E|------------------------------------------------------------------------|

02:17 - 02:22
e|------------------------------------|
B|----1-------1----------1-------1----|
G|1-3---3-1-3---1----1-3---3-1-3---3-1|
D|------------------------------------|
A|------------------------------------|
E|------------------------------------|



 
»
Tvoje obľúbené položky
Tvoje obľúbené položky
»
Nové albumy interpreta
Nové albumy interpreta
CD Zoci Voci Xiii trinast
CD Xiii
trinast
CD Zoci Voci Audioheroin
CD Audioheroi
n

»
Najnovšie videá
Najnovšie videá

Zoči Voči- Otvor si oči (text)

Zoči Voči - Otvor si oči cover

Zoči Voči - Otvor si oči (live)

Zoči Voči - Otvor si oči (Nitra, Nov

ZOČI VOČI MONSTER ENERGY TOUR 14.10.20

Kratky Proces Otvor Si Oči
»
Najnavštevovanejšie piesne
Najnavštevovanejšie piesne
Nad Prahou - akordy a text

Stratený - akordy a text

3:00 - akordy a text

S Tebou - text

Aj keď - akordy a text

V Zázraky Neverím - akordy a text

Jeden Dôvod (akusticky) - akordy a text

Neverím V Zázraky - text

Klamem - akordy

Jeden Dôvod - text

2012 - akordy a text

Neverím V Zázraky - akustik - akordy a text

Nad Prahou - akordy a text

Ariela - akordy a text

Stratený - text

Stratený - akordy a text

Utekám - akordy a text

3:00 - akordy a text

Nad Prahou - akordy

Čerešne - akordy a text

viac




home | interpreti | register piesní | cd & dvd shop | pripomienky/nápady | kontakt | ochrana údajov | inzercia

TOPlist