Kabát

piesne (539)

  texty (262) / preklady (0)
  akordy (175) / taby (244)
  noty (0) / slideshow (0)

články (317)
fotogaléria
diskusia
videá
diskografia
v obchode
odkazy
koncerty
sťahuj



pridaj vlastný článok

Maťo Ďurinda:
Festival Topfest zverejňuje prvých interpretov 15- - Festival Topfest zverejňuje prvých interpretov 15-teho ročníka | Autor: Pavol Karell... - ahudba.sk


Michal David:
Organizátor Českého slávika zverejnil neupravené výsledky ankety: Všetko
je úplne inak!
- Organizátor Českého slávika napriek búrlivým reakciám ocenených trvá na svojom. ... - cas.sk


Kabát:
Na koncert Kabátu přišlo 20.083 lidí, padl tak rekord haly - Aktualizace: 29.11.2017 12:46 Vydáno: 29.11.2017, 12:38 foto Závěrečn koncert l... - ceskenoviny.cz


Kabát:
Skupina Kabát vracia Českého slávika, nechce byť súčasťou manipulácie - ... - sme.sk


Karel Gott:
Zdrvujúci úder pre Českého slávika po tom, čo sa Kabát vzdal ceny: Karel
Gott začal konať!
- ... - aktuality.sk


Český Slavík:
Najhorší scenár sa naplnil! Víťaz ankety Český slávik Kabát sa vzdáva
ceny: Rázne vyjadrenie skupiny!
- ... - aktuality.sk


Lucie Bílá:
Českými slavíky jsou Lucie Bílá, Karel Gott a skupina Kabát - Aktualizace: 25.11.2017 23:08 Vydáno: 25.11.2017, 21:33 foto Absolutním Českým sl... - ceskenoviny.cz


Kabát:
Kabát chce od pořadatelů vysvětlení kvůli hlasům pro Ortel - Aktualizace: 27.11.2017 12:53 Vydáno: 27.11.2017, 12:32 foto Ilustrační foto - Jos... - ceskenoviny.cz


Kabát:
Kabát do vysvětlení kauzy s Ortelem vrátí Českého slavíka - Aktualizace: 28.11.2017 20:24 Vydáno: 28.11.2017, 19:39 foto Josef Vojtek, zpěvák ... - ceskenoviny.cz


Lucie Bílá:
Českého slavíka opanovali znovu ti samí vítězové - Gott, Bílá a Kabát - Českého slavíka opanovali znovu ti samí vítězové - Gott, Bílá a Kabát Vydán... - musicserver.cz


 

Kabát

Fanúšikov: 181



A B C Č D E F G H CH I J K L Ľ M N O P Q R S Š T U V W X Y Z Ž



ako:
Kabát - Lady Gag a Rin
Kabát - Lady Gag a Rin

tlač

edituj
Rok vzniku: 2010
Poznámka: - Bass tab

Pesničku videlo 7490 návštevníkov.

Kvalita tabov :
Hodnotilo ľudí: 1 ohodnoť aj ty
Prispievateľ:

Lüxer
  *** Autor textu: Milan Špalek *** Autor hudby: Tomáš Krulich
Písnička je naladěná do Dropp D = E struna podladěná na D = o dva pražce = ladění DADG

Intro : hraj 2x + 2x sloka
G ---------------------------------------------------------------
D ----------------------------------------------------------------
A ----------------------------------------------------------------
D ---5p4-3------ (můžete taky hrát(--5--3--), ale při bedlivějším
poslechu zjistíte, že se to hraje tak jak jsem napsal poprvé ;-))

Sloka :
G ---------------------------------------------------------------
D ---------------------------------------------------------------
A --3--5---------3--5---------3--5-------------------------------
D -------0-0-00-------0-0-00-------0-0-00--0-5p4-3---------------


Sloka 2: (Doplňuje Tomášovu kytaru)
G ---------------------------------------------------------------
D ---------------------------------------------------------------
A --555-5-55-533-3-33-322-2-22-211-1-11--------------------------
D ---------------------------------------------------------------

Očistu těla,..

G ---------------------------------------------------------------
D ---------------------------------------------------------------
A----------------------------------------------------------------
D --2-3-2--2-x-x---2-3-2--2-x-x---2-3-2--2-x-x---2-3-2--2-x-x----

Refrén :

G ---------------------------------------------------------------
D ---------------------------------------------------------------
A -1111111111111111----------------------------------------------
D ------------------0000000000000000-33333333-55555555-----------

G ---------------------------------------------------------------
D ---------------------------------------------------------------
A -5----------5--------------------------------------------------
D ---0---3-0----0---0-5-0-3-2------------------------------------

G ---------------------------------------------------------------
D ---------------------------------------------------------------
A -1111111111111111----------------------------------------------
D ------------------0000000000000000-33333333-55555555-----------

Sólo : Hraj 2x (hodně prostoru k improvizaci)

G ---------------------------------------------------------------
D ---------------------------------------------------------------
A ---------------------------------------------------------------
D --00000000000000-3h5-00000000000000-3h5------------------------

Sólo 2 : (Ještě víc prostrou k improvizaci :-D)

G --------------------------------------------------------------
D --------------------------------------------------------------
A --------------------------------------------------------------
D -22222222222222222222222222222222-----------------------------

Konec :

Sloka :
G ---------------------------------------------------------------
D ---------------------------------------------------------------
A --3--5---------3--5---------3--5-------------------------------
D -------0-0-00-------0-0-00-------0-0-00--0-5p4-3---------------

Jelikož basa hraje podle kytar, tak je tenhle tab použitelný i pro kytaristy. Hodnoťte prosím ;-)

 
»
Tvoje obľúbené položky
Tvoje obľúbené položky
»
Nové albumy interpreta
Nové albumy interpreta
VINYL Kabat Megahu [vinyl]
VINYL Megahu
[vinyl]
4xCD Kabat Original albums 4cd vol.2
4xCD Original
albums 4cd
vol.2
VINYL Kabat Go satane go [vinyl]
VINYL Go satane
go [vinyl]
VINYL Kabat Dole v dole [vinyl]
VINYL Dole v
dole
[vinyl]
VINYL Kabat Cert na koze jel [vinyl]
VINYL Cert na
koze jel
[vinyl]
4xCD Kabat Original albums 4cd vol.1 [mjm,dttz,colorado,zpt]
4xCD Original
albums 4cd
vol.1
[mjm,dttz,
colorado,z
pt]

»
Najnovšie videá
Najnovšie videá

Kabát - Lady Gag a Rin [Banditi di prag

Kabát - Lady Gag a Rin

Kabát - Lady Gag a Rin

Kabát - Lady Gag a Rin (Kapka naděje 5

Kabát - Lady Gag a Rin

Kabát- Lady Gag a Rin
»
Najnavštevovanejšie piesne
Najnavštevovanejšie piesne
Malá dáma - akordy a text

Houby magický - akordy a text

Pohoda - akordy a text

Western Boogie - akordy

Kdoví jestli - akordy a text

Burlaci - akordy a text

Corrida - akordy a text

Malá Dáma ver.2 - akordy a text

Colorado - akordy a text

Schody - akordy a text

Brousíme nože - akordy a text

Bára... Konečně celá a správně!!! (Kraviny opraveny ;-)) - akordy a text

Bára - akordy a text

Šaman - akordy a text

Na sever - akordy a text

Burlaci - akordy a text

Banditi di Praga - akordy a text

Moderní devče - akordy a text

V pekle sudy válej - uplny text - akordy a text

Burlaci - akordy a text

viac




home | interpreti | register piesní | cd & dvd shop | pripomienky/nápady | kontakt | ochrana údajov | inzercia

TOPlist