Tublatanka

piesne (166)

  texty (133) / preklady (0)
  akordy (74) / taby (24)
  noty (6) / slideshow (0)

články (191)
fotogaléria
diskusia
videá
diskografia
v obchode
odkazy
koncerty
sťahuj



pridaj vlastný článok

Maťo Ďurinda:
Festival Topfest zverejňuje prvých interpretov 15- - Festival Topfest zverejňuje prvých interpretov 15-teho ročníka | Autor: Pavol Karell... - ahudba.sk


Maťo Ďurinda:
Tublatanka predstavuje novú vianočnú pieseň s mierovým posolstvom! - Skupina Tublatanka prichádza v adventnom čase s novou vianočnou pesničkou! Pre fanú... - music-zone.eu


Jindřich Brabec:
TOP 7 písní, které doprovázely Sametovou revoluci: Zpívali je Marta
Kubišová, Karel Kryl, Jaroslav Hutka a další
- Vydáno 17.11.2017 | autor: Hana Bukáčková Od pádu komunistického režimu už... - ireport.cz


Maťo Ďurinda:
4 slovenské hudobné legendy s potenciálom svetových hviezd! - Napísal Martin F - máj 21, 2017 ZDIEĽAŤ ČLÁNOK NA FACEBOOK ZDIEĽAŤ NA TWITTER ... - manmagazin.sk


Tublatanka:
Samovraždy slávnych: Muzikant Dodo Dubán pred smrťou fajčil jednu cigaretu
za druhou
- 18.12.2016 (50/2016) Keď zomrie človek, smúti rodina, príbuzní a priatelia. Ak sa v... - cas.sk


Maťo Ďurinda:
5 videoklipů od slovenské kapely Tublatanka - 8. 11. 2016 13:26 – autor: Redakce Osobnosti.cz Podívejte se na 5 videoklipů od slo... - osobnosti.cz


Tublatanka:
Martin Ďurinda: Tublatanka sa pomaly stáva viacgeneračnou kapelou (rozhovor) - 04.10.2016 - 09:00 | Marek Danko Legendárna trojka má už 33 rokov, pritom stále pr... - zoznam.sk


Tublatanka:
Skupina Tublatanka bude mať silnú koncertnú jeseň - ... - livemusic.sk


Bára Basiková:
Vyšiel Nový Populár, preèítajte si, èo obsahuje - Prvé tohtoročné číslo Nového Populáru prinieslo na titulke portrét Juraja Čern...


Bára Basiková:
Vyšiel časopis Nový Populár 1/2016, prečítajte si, čo obsahuje - sem napíšte text článkuPrvé tohtoročné číslo Nového Populáru prinieslo na tit...


 

Tublatanka

Fanúšikov: 47



A B C Č D E F G H CH I J K L Ľ M N O P Q R S Š T U V W X Y Z Ž



ako:
Tublatanka - Svet v ohrození - SÓLO
Tublatanka - Svet v ohrození - SÓLO

tlač

edituj
Rok vzniku: 2010
Pesničku videlo 3813 návštevníkov.

Kvalita tabov : bez hodnotenia
Hodnotilo ľudí: 0 ohodnoť aj ty
Prispievateľ:

Tommik_zo_Sale
Ladenie Eb
Nemusi to byt na 100% presne, takto to hram ja

s - slide
b - bend
~ - vibrato

Eb --------------------------------7-5----------------8-10-10b~~~---
B ------------------------------------8-7-------10-----------------
Gb ------------------------------7---------7-9~~----9---------------
Db -----------5-4-2------------7------------------------------------
Ab ------2-5--------3-3s5~~-----------------------------------------
Eb --0-3------------------------------------------------------------

Eb -----------------------------------------------------------15-17~
B --------------------------------------------10~------15-17-------
Gb ---------------------------------9----5-7-9-------17-------------
Db ------------------7----5-4-----7~--7-----------------------------
Ab ----5----3-2----5~--5------5-------------------------------------
Eb --3~--3------3---------------------------------------------------

Eb -----------------------------------------------------------------
B -----------------------------------------------------------------
Gb --------9-12~-------9-12~-------9-12--------12-14~-------12-14~--
Db --10-12-------10-12-------10-12-------12-14--------12-14---------
Ab -----------------------------------------------------------------
Eb -----------------------------------------------------------------

Eb ----------------------------------------------------------10-12--
B --------------------10-12~------10-12~------10-12---10-12--------
Gb --------12-14--9-12--------9-12--------9-10----------------------
Db --12-14----------------------------------------------------------
Ab -----------------------------------------------------------------
Eb -----------------------------------------------------------------

Eb --------10-12-------15-17-------15-17------17b-17-15-17-15-------
B --10-12-------15-17-------15-17----------------------------------
Gb ------------------------------------------------------------17b--
Db -----------------------------------------------------------------
Ab -----------------------------------------------------------------
Eb -----------------------------------------------------------------

Eb ----------------------15-----------------------------------------
B --15-17-19-17-15--15b----15b~------------------------------------
Gb -----------------------------------------------------------------
Db -----------------------------------------------------------------
Ab -----------------------------------------------------------------
Eb -----------------------------------------------------------------

 
»
Tvoje obľúbené položky
Tvoje obľúbené položky
»
Nové albumy interpreta
Nové albumy interpreta
DVD  Tublatanka: 30 rockov - vo velkej skole dni
DVD Tublatanka
: 30
rockov -
vo velkej
skole dni
CD Tublatanka Citim sa fajn - best of vol.3.
CD Citim sa
fajn -
best of
vol.3.
CD Tublatanka Svet v ohrozeni
CD Svet v
ohrozeni
CD Tublatanka Skusime to cez vesmir
CD Skusime to
cez vesmir
2xCD Tublatanka Skusime to cez vesmir/zerave znamenie osudu
2xCD Skusime to
cez
vesmir/zer
ave
znamenie
osudu
CD Tublatanka Patriot
CD Patriot

»
Najnovšie videá
Najnovšie videá

Tublatanka-svet v ohrození

Tublatanka - Svet v ohrozeni (Snina 2012

Tublatanka - Svet v ohrození (Košice 2

Tublatanka - Svet v ohrození, LIVE HD,

tublatanka- svet v ohrozeni

Tublatanka - Svet v ohrozeni (Snina 2010
»
Najnavštevovanejšie piesne
Najnavštevovanejšie piesne
Loď do neznáma - akordy a text

Dnes - akordy a text

Matka - akordy a text

Loď do neznáma - správne - text

Láska drž ma ešte nad hladinou - akordy a text

Mama - akordy a text

Dnes - text

Môj starý dobrý kabát - akordy a text

Pravda víťazí - akordy a text

Bez tvojej lásky - akordy a text

Loď - akordy a text

Loď do neznáma (intro) - taby

Láska drž ma nad hladinou - taby

Dnes * - akordy a text

Piesen pre Doda - akordy a text

Spálená láska - akordy a text

Priateľ - akordy a text

Poďme bratia do Betlehema - akordy a text

Ja sa vrátim - akordy a text

Dnes - taby

viac




home | interpreti | register piesní | cd & dvd shop | pripomienky/nápady | kontakt | ochrana údajov | inzercia

TOPlist