Kresťanské - Sk

piesne (638)

  texty (563) / preklady (0)
  akordy (439) / taby (8)
  noty (1) / slideshow (0)

články (20)
fotogaléria
diskusia
videá
diskografia
v obchode
odkazy
koncerty
sťahuj



pridaj vlastný článok

Johann Sebastian Bach:
Do kostelů se na měsíc vrátí duchovní hudba. Začíná Svatováclavský
hudební festival
- Svatováclavský hudební festival (foto archiv) - Foto: Svatováclavský hudební fes... - rozhlas.cz


Chvály:
Hosana! Gospely na Slovensku - Hosana! Gospely na Slovensku Keď sú Rómovia veriaci, vždy a všade spievajú ... - sme.sk


Kresťanské - Sk:
Vstúpte do nového sveta CampFEST 2012 - CampFest je 4-dňový open-air music festival plný kempovej pohody. Program prebieha sú...


Kresťanské - Sk:
Spievajme pánovi opäť v Ružomberku - Skupina JOCARA, SIMILE, spevokol ANDREJKO,JUVENTUS a MIRO JILO. Všetko na Vás čaká...


Kresťanské - Sk:
Simile v Gospeltalente - Kapela Simile z Liptova prihlásila svoju skladbu On lieči do Gospeltalentu. Hlasova ...


Kresťanské - Sk:
Mladá gospelová kapela chce šíriť Božiu lásku - 1. mája, vydala kapela Simile svoj singel ON LIEČI Skladba ON LIEČI hovorí o živo...


Kresťanské - Sk:
Divadlo Nová scéna pripravuje muzikál František z Assisi - Bratislava 14. mája (TASR) – Bratislavské Divadlo Nová scéna pripravuje premiéru p...


Kresťanské - Sk:
Zvolen: Na festivale chrámovej piesne poltucta najlepších slovenských zborov - sme.sk - hudba


Kresťanské - Sk:
V predvečer otvorenia Capalestu zaznejú mariánske piesne - Bratislava 14. augusta (TASR) - V predvečer slávnostného otvorenia európskeho festiva...


Kresťanské - Sk:
Prehliadka Mládežníckych Zborov - Prehliadka Mládežníckych Zborov Spievajte Pánovi 23. Júna Brodno 15 00 hod...


 

Kresťanské - Sk

Fanúšikov: 17



A B C Č D E F G H CH I J K L Ľ M N O P Q R S Š T U V W X Y Z Ž



ako:
Kresťanské - Sk - Do tmy na svet
Kresťanské - Sk - Do tmy na svet

tlač

edituj
Pesničku videlo 2906 návštevníkov.

Kvalita tabov : bez hodnotenia
Hodnotilo ľudí: 0 ohodnoť aj ty
Prispievateľ:

majo294



e---------------------------------------------------

h--8-8-9-6-6-8-9-9-8-6---8-8-9-6-6--8---------------

g----------------------8--------------8-------------

D---------------------------------------------------

A---------------------------------------------------

E---------------------------------------------------


e---------------------------------------------------

h--8-8-9-6-6-8-9-9-8-6---8-8-9-6-6--8---------------

g----------------------8--------------8-------------

D---------------------------------------------------

A---------------------------------------------------

E---------------------------------------------------


e------------------------------------------6--------

h---8-8-8-6-8-8-8-8-8-6-6-6-8-8-8-6-8-8-8----------

g---------------------------------------------8-----

D---------------------------------------------------

A---------------------------------------------------

E---------------------------------------------------


e-----------6---------------------------------------

h--8-6-6-8----9-8-6---------------------------------

g-------------------8-------------------------------

D---------------------------------------------------

A---------------------------------------------------

E---------------------------------------------------


e------------------------------------------6--------

h---8-8-8-6-8-8-8-8-8-6-6-6-8-8-8-6-8-8-8----------

g---------------------------------------------8-----

D---------------------------------------------------

A---------------------------------------------------

E---------------------------------------------------


e-----------6---------------------------------------

h--8-6-6-8----9-8-6---------------------------------

g-------------------8-------------------------------

D---------------------------------------------------

A---------------------------------------------------

E---------------------------------------------------


 
»
Tvoje obľúbené položky
Tvoje obľúbené položky

»
Najnovšie videá
Najnovšie videá

SVĚTLO A TMA-E01-CZ-HD

Ing. Jozef Banáš: Demotivujúce kresť

Evanjelium podľa Jána - Biblia SK

Skutky apoštolov - Biblia SK

Bohoslužby Banská Bystrica 22.10.2017

LP přepis - Druhá Tráva (Robert Křes
»
Najnavštevovanejšie piesne
Najnavštevovanejšie piesne



home | interpreti | register piesní | cd & dvd shop | pripomienky/nápady | kontakt | ochrana údajov | inzercia

TOPlist