Kabát

piesne (539)

  texty (262) / preklady (0)
  akordy (175) / taby (244)
  noty (0) / slideshow (0)

články (317)
fotogaléria
diskusia
videá
diskografia
v obchode
odkazy
koncerty
sťahuj



pridaj vlastný článok

Maťo Ďurinda:
Festival Topfest zverejňuje prvých interpretov 15- - Festival Topfest zverejňuje prvých interpretov 15-teho ročníka | Autor: Pavol Karell... - ahudba.sk


Michal David:
Organizátor Českého slávika zverejnil neupravené výsledky ankety: Všetko
je úplne inak!
- Organizátor Českého slávika napriek búrlivým reakciám ocenených trvá na svojom. ... - cas.sk


Kabát:
Na koncert Kabátu přišlo 20.083 lidí, padl tak rekord haly - Aktualizace: 29.11.2017 12:46 Vydáno: 29.11.2017, 12:38 foto Závěrečn koncert l... - ceskenoviny.cz


Kabát:
Skupina Kabát vracia Českého slávika, nechce byť súčasťou manipulácie - ... - sme.sk


Karel Gott:
Zdrvujúci úder pre Českého slávika po tom, čo sa Kabát vzdal ceny: Karel
Gott začal konať!
- ... - aktuality.sk


Český Slavík:
Najhorší scenár sa naplnil! Víťaz ankety Český slávik Kabát sa vzdáva
ceny: Rázne vyjadrenie skupiny!
- ... - aktuality.sk


Lucie Bílá:
Českými slavíky jsou Lucie Bílá, Karel Gott a skupina Kabát - Aktualizace: 25.11.2017 23:08 Vydáno: 25.11.2017, 21:33 foto Absolutním Českým sl... - ceskenoviny.cz


Kabát:
Kabát chce od pořadatelů vysvětlení kvůli hlasům pro Ortel - Aktualizace: 27.11.2017 12:53 Vydáno: 27.11.2017, 12:32 foto Ilustrační foto - Jos... - ceskenoviny.cz


Kabát:
Kabát do vysvětlení kauzy s Ortelem vrátí Českého slavíka - Aktualizace: 28.11.2017 20:24 Vydáno: 28.11.2017, 19:39 foto Josef Vojtek, zpěvák ... - ceskenoviny.cz


Lucie Bílá:
Českého slavíka opanovali znovu ti samí vítězové - Gott, Bílá a Kabát - Českého slavíka opanovali znovu ti samí vítězové - Gott, Bílá a Kabát Vydán... - musicserver.cz


 

Kabát

Fanúšikov: 181



A B C Č D E F G H CH I J K L Ľ M N O P Q R S Š T U V W X Y Z Ž



ako:
Kabát - Pirates
Kabát - Pirates

tlač

edituj
Rok vzniku: 2015
Pesničku videlo 6207 návštevníkov.

Kvalita tabov :
Hodnotilo ľudí: 1 ohodnoť aj ty
Prispievateľ:

FeuerFrei

Kabát – Pirates


Intro:
4x
E---------------------------------------------|
H---------------------------------------------|
G---------------------------------------------|
D---------------------------------------------|
A-7-7-7-9-7-10-10--6-6-7-7-7-9-7-10-10-9-7----|
E------------------------------------------7~-|


Sloha:
2x
E-----------------------------------|
H-----------------------------------|
G-----------------------------------|
D-----------------5x5x5x-5x5x4x4x4x-|
A-2x2x--2x2x2x2x--3x3x3x-3x3x2x2x2x-|
E-0x0x--0x0x0x0x--------------------|

2x
E--------------------------------------|
H--------------------------------------|
G--------------------------------------|
D-----------------5-5x5x5x5x4x4x4x4x4x-|
A-2x2x2x2x2x2x2x2x3-3x3x3x3x2x2x2x2x2x-|
E-0x0x0x0x0x0x0x0x---------------------|


E----------------------------------|
H----------------------------------|
G----------------------------------|
D-------------------4x4x4x4x444444-|
A-5x5x5x-5x5x5x5x5x-2x2x2x2x222222-|
E-3x3x3x-3x3x3x3x3x----------------|


Refrén:
4x
E---------------------------------|
H---------------------------------|
G---------------------------------|
D-9999999955555555--------4444444-|
A-7777777733333333555555552222222-|
E-----------------33333333--------|


Sólo:
E-----------------------------------------------------|
H-----------------------------------------------------|
G-----------------------------------------------------|
D-------------------------------------------------7-7-|
A-7-7-7-10-10-9-9-9-9-9-6-6-7-7-7-10-10-9-9-9-9-9-----|
E-----------------------------------------------------|

E---------------------------------------------------|
H---------------------------------------------------|
G---------------------------------------------------|
D-5-5-5-9-9-7-7-7-7-7-10-10-9-9-9-7-7-5-5-5-5-5-4-4-|
A---------------------------------------------------|
E---------------------------------------------------|

E------------------------------------------------------------|
H------------------------------------------------------------|
G------------------------------------------------------------|
D--9-9-9-10-10-9-9-9-9-9-12-12-10-10-10-14-14-12-12-12-16-16-|
A------------------------------------------------------------|
E------------------------------------------------------------|

E----------------------------------|
H----------------------------------|
G-12-12-12-11-11-12-12-12-12-11-11-|
D----------------------------------|
A----------------------------------|
E----------------------------------|

E----------------------------------|
H----------------------------------|
G-14-14-14-16-16-14-14-14-14-16-16-|
D----------------------------------|
A----------------------------------|
E----------------------------------|

E-----------------------------------|
H-----------------------------------|
G-----------------------------------|
D-5-5-5-9-9-9-7-7-7-4-5-5-5-9-9-9-7-|
A-----------------------------------|
E-----------------------------------|




 
»
Tvoje obľúbené položky
Tvoje obľúbené položky
»
Nové albumy interpreta
Nové albumy interpreta
VINYL Kabat Megahu [vinyl]
VINYL Megahu
[vinyl]
4xCD Kabat Original albums 4cd vol.2
4xCD Original
albums 4cd
vol.2
VINYL Kabat Go satane go [vinyl]
VINYL Go satane
go [vinyl]
VINYL Kabat Dole v dole [vinyl]
VINYL Dole v
dole
[vinyl]
VINYL Kabat Cert na koze jel [vinyl]
VINYL Cert na
koze jel
[vinyl]
4xCD Kabat Original albums 4cd vol.1 [mjm,dttz,colorado,zpt]
4xCD Original
albums 4cd
vol.1
[mjm,dttz,
colorado,z
pt]

»
Najnovšie videá
Najnovšie videá

Kabát "PIRATES"

Kabát - DO PEKLA / DO NEBE (celé album

Pirates of the Caribbean // Pirates

Kabát - Do Bolívie na banány

Kabát - Pirates | Guitar cover + solo |

Kabát Pirates
»
Najnavštevovanejšie piesne
Najnavštevovanejšie piesne
Malá dáma - akordy a text

Houby magický - akordy a text

Pohoda - akordy a text

Western Boogie - akordy

Kdoví jestli - akordy a text

Burlaci - akordy a text

Corrida - akordy a text

Malá Dáma ver.2 - akordy a text

Colorado - akordy a text

Schody - akordy a text

Brousíme nože - akordy a text

Bára... Konečně celá a správně!!! (Kraviny opraveny ;-)) - akordy a text

Bára - akordy a text

Šaman - akordy a text

Na sever - akordy a text

Burlaci - akordy a text

Banditi di Praga - akordy a text

Moderní devče - akordy a text

V pekle sudy válej - uplny text - akordy a text

Burlaci - akordy a text

viac




home | interpreti | register piesní | cd & dvd shop | pripomienky/nápady | kontakt | ochrana údajov | inzercia

TOPlist