Jiří Schelinger

piesne (153)

  texty (138) / preklady (0)
  akordy (56) / taby (7)
  noty (1) / slideshow (0)

články (12)
fotogaléria
diskusia
videá
diskografia
v obchode
odkazy
koncerty
sťahuj



pridaj vlastný článok

Jiří Schelinger:
Záhadná smrť Jiřího Schelingera († 30) v Bratislave: Prečo sa nechal
vyprovokovať k osudnému skoku?
- 78 zdieľaní Zdieľaj Diskusia / 74 Zapnúť upozornenia Máte tip? Dajte nám vedi... - cas.sk


František Ringo Čech:
František Ringo Čech: "Schelinger bol absolútny unikát" - 19.04.2019 - 11:00 | redakcia Dvojica Jiří Schelinger a František Ringo Čech je vn... - zoznam.sk


Jiří Schelinger:
Když byl český text, prošli i Black Sabbath. Vychází reedice
Schelingerových desek
- Na CD a mp3 vychází reedice desek ze sedmdesátých let Báječní muži a Nemám hlas ... - novinky.cz


Jiří Schelinger:
Záhadná smrť známeho speváka v Dunaji: Bez drog bol zúfalý - Jiří Schelinger Jiří Schelinger Zdroj: Otta Dlabola pred 11 hodinami BRAT... - topky.sk


Bohumil Hrabal:
Smrt po pádu za nejasných okolností: Kromě Třísky tak zemřeli Hrzán,
Schelinger a další
- PředchozíÚvod12345Víc eDalší Jako Jan Tříska (†80) zemřeli i Hrzán či Hrabal... - blesk.cz


Jiří Schelinger:
13. komnata Milana Schelingera - Milan Schelinger autor: Česká televize zvětšit obrázek 13. komnata Milana Schel... - scena.cz


Jiří Schelinger:
Jiří Schelinger - Hrrr na ně … / Nám se líbí … - Jirka „ Pery “ Schelinger je ikona české rockové scény. Kdo ví, jak by teď ta... - rockmag.cz


Ľubo Belák:
Mainstream socializmu: Vďaka Bratislavskej lýre nás spoznal aj Západ - BRATISLAVA – Najikonickejšia súťaž populárnej hudby v Československu oslavuje 50.... - atlas.sk


Jiří Schelinger:
Jiří Schelinger by oslavoval - Pošli na FacebookPošli na TwitterPošli na GoogleVytlačiť Zdroj: © Server.sk, red... - server.sk


Justin Bieber:
Justin Bieber obhájil zlato v rádiích, nejprodávanější je i nadále
Jiří Schelinger
- Vydáno: 25.03.2016 02:53 v sekci České hitparády - Jaromír Koc V rádiích se na š... - musicserver.cz


 

Jiří Schelinger

Fanúšikov: 14



A B C Č D E F G H CH I J K L Ľ M N O P Q R S Š T U V W X Y Z Ž



ako:
Jiří Schelinger - Šípková Růženka
Jiří Schelinger - Šípková Růženka

tlač

edituj
Rok vzniku: 2006
V originále: Soldier of Fortune/Deep Purple
Pesničku videlo 25677 návštevníkov.

Kvalita tabov : bez hodnotenia
Hodnotilo ľudí: 0 ohodnoť aj ty
Prispievateľ:

Jaro
  *** Autor textu: E.Synek *** Autor hudby: R.Blackmore/J.Schelinger/f.r.?evh

#----------------------------------PLEASE NOTE---------------------------------#
#This file is the author's own work and represents their interpretation of the #
#song. You may only use this file for private study, scholarship, or research. #
#------------------------------------------------------------------------------#

ŠÍPKOVÁ RUZENKA (VERSION OF ORIG.SOLDIER OF FORTUNE BY DEEP PURPLE-ALBUM STORMBRINGER 1973)
As recorded by J.Schelinger
(From the 1977 Album J.SCHELINGER )


Transcribed by Jaro

Words by E.Synek/D.Coverdale Music by R.Blackmore/J.Schelinger/F.R.Čech



Gtr I (E A D G B E) - 'Gtr.I-steel'
Gtr II (E A D G B E) - 'Gtr.II-steel-distortion'
Gtr III (E A D G B E) - 'Gtr.III-steel-distortion'


Intro
Q=70
4/4
Gtr I
E E E E E E E E E E E E E E E E
|------------------|-----------------------|
|---------3--------|------------1----------|
|-------3---3------|----------2---2--------|
|-----5-------5----|--------3-------3------|
|---5------------5-|------3-----------3----|
|-3----------------|----1------------------|
|
| Gtr II
| ~
| E E E E E E E E a S S E a S S E H
|-------3-5-6-6s10-|-8h10p8-6-5h6p5-3-5----|
|-----3------------|-----------------------|
|---3--------------|-----------------------|
|-5----------------|-----------------------|
|------------------|-----------------------|
|------------------|-----------------------|


E E E E E E Q E E E E H
|--------------------------|-----------------|
|------------5-------------|------------3----|
|---------5----5-----------|---------3-------|
|-------5----------5-------|-------5---------|
|-----3--------------------|-----5-----------|
|---3----------------------|-3---------------|
|
| ~
| E a S a S H +E E S S S S H.
|-^-8-6h8p6-5-3-----(3)-3-|-6p5h6p5-3-------|
|-^-8----------------------|-----------------|
|-^-9----------------------|-----------------|
|-^10----------------------|-----------------|
|--------------------------|-----------------|
|--------------------------|-----------------|


1st Verse
4/4
Gtr I
E E E E E E E E E E E E E E E E E E E E E E E E E E E E E E E E
|-----------3-----|-------1---------|-----------------|---------5--------|
|---------3---3---|-----1---1-------|---------3-------|-------6---6------|
|-------3-------3-|---2-------2---2-|-------3---3-----|-------------7----|
|-5---5-----------|-3-----------3---|-5---5-------5---|-7---7---------7--|
|---5-------------|-----------------|---5-----------5-|---5--------------|
|-----------------|-----------------|-----------------|------------------|


E E E E E E E E E E E E E E E E E E E E E E E E E E E E Q E E
|-----------------|-----------------|-----------------|----------------|
|---------3-------|---------1-------|---------3-------|-------6--------|
|-------3---3-----|-------2---2-----|-------3---3-----|-----7---7------|
|-5---5-------5---|-3---3-------3---|-5---5-------5---|---7------------|
|---5-----------5-|---3-----------3-|---5-----------5-|-5----------5-3-|
|-----------------|-----------------|-----------------|----------------|


E E E E E E E E E E E E E E E E E E E E E E E E E E E E E E E E
|-----------------|-----------------|-----------------|-----------------|
|-------3-------5-|---------3-------|-------4-----6---|-3-----3-------6-|
|-----3-------5---|-------3---3-----|-----3---------5-|-----3-------7---|
|---3-------5-----|-5---5-------5---|---5-------7-----|---3-------7-----|
|-1-------3-------|---5-----------5-|-6-------8-------|---------5-------|
|-----------------|-----------------|-----------------|-----------------|


E E E E E E E E Q E E E E Q Q Q E E E E E E E E E E E E
|-----------------|---------------|---------------|-----------------|
|---------------1-|------3--------|-4-----------4-|-------6---------|
|-------3-2---2---|----3-------3--|-------5---5---|-7---7---------3-|
|-5---5-----3-----|----------5----|---------5-----|---7-----5---5---|
|---5-------------|-1------6------|----5----------|-----------5-----|
|-----------------|---------------|---------------|-----------------|


Guitar Solo
Gtr I
E E E E E E E E E E E E E E E E
|---------------------------------|---------------------------------------|
|-3-------------------------------|---3-----------------------------------|
|---3---------------------------3-|---------3--------------------5--------|
|-----5--------5---------5--------|-----------5---------------5-----------|
|--------5------------5-----------|--------------5-----3------------------|
|---------------------------------|-----------------3---------------------|
|
| Gtr II
| Q a E E Q Q +Q a E E Q Q
|---------------------------------|---------------------------------------|
|---------------------------------|-----------7-/8-11-11b13-----11b13-----|
|-----6-/7-10-10b12-----10b12-----|-(10)b12-------------------------------|
|---------------------------------|---------------------------------------|
|---------------------------------|---------------------------------------|
|---------------------------------|---------------------------------------|
|
| Gtr III
| ~~~~~~~~~~~~~~~~~~~~~~
| Q a E E a Q a Q +Q a E E a Q a Q
|---------------------------------|---------------------------------------|
|---------------------------------|-----------7-/8-11-11----/13-11----/13-|
|-----6-/7-10-10----/12-10----/12-|-(12)----------------------------------|
|---------------------------------|---------------------------------------|
|---------------------------------|---------------------------------------|
|---------------------------------|---------------------------------------|


E E E E E E E E E E E E E E E E
|----------------------------3-----------|---3-----------------------------|
|---5-----------------3---------3--------|---------3----------------5------|
|---------5------------------------------|------------3---------------5----|
|-----------5------5---------------------|--------------------5---------5--|
|---------------3------------------------|-----------------------3---------|
|----------------------------------------|---------------------------------|
|
| ~~
| +Q a E E Q Q +Q E E H
|-----------9-/10-13-13b15-----13b15-----|-(13)b15-------------------------|
|-(11)b13--------------------------------|-----------13pb15r=11-13---------|
|----------------------------------------|---------------------------------|
|----------------------------------------|---------------------------------|
|----------------------------------------|---------------------------------|
|----------------------------------------|---------------------------------|
|
| ~~
| +Q a E E a Q a Q +Q a E E H
|-----------9-/10-13-13----/15-13----/15-|-(15)----------------------------|
|-(13)-----------------------------------|-----------15-----13-11-13------|
|----------------------------------------|---------------------------------|
|----------------------------------------|---------------------------------|
|----------------------------------------|---------------------------------|
|----------------------------------------|---------------------------------|


Gtr I
E E E E E E E E E E E E E E E E
|-----------------------------------|---------------------------------------|
|---5---------5---------------------|---3---------------------------------3-|
|------5--------------------------3-|----------3-------------------3--------|
|----------5---------------5--------|--------------5------------3-----------|
|-----------------------5-----------|-----------------5--1------------------|
|----------------3------------------|---------------------------------------|
|
| Gtr II
| +Q a E E Q Q +Q a E E Q Q
|------8-/10-13-13b15-----13b15-----|-(13)b15-10--8------------------------|
|-(13)------------------------------|----------------11-13b15-----13b15-----|
|-----------------------------------|---------------------------------------|
|-----------------------------------|---------------------------------------|
|-----------------------------------|---------------------------------------|
|-----------------------------------|---------------------------------------|
|
| Gtr III
| +Q a E E a Q a Q +Q a E E a Q a Q
|------8-/10-13-13----/15-13----/15-|-(15)----------------------------------|
|-(13)------------------------------|---------15-13-11-13----/15-13----/15-|
|-----------------------------------|---------------------------------------|
|-----------------------------------|---------------------------------------|
|-----------------------------------|---------------------------------------|
|-----------------------------------|---------------------------------------|


2/4
E E E E E E E E H E E E E E E E E
|--------------------------------|-------------------------------|------------|
|--------------3-----------------|---5---------------------------|---3--------|
|---3-----------------3--------5-|-----------------------------3-|------3-----|
|----------3-----------------5---|---------------------------5---|--------5---|
|--------------------------3-----|-------------------------5-----|----------5-|
|------------------------3-------|-----------------------3-------|------------|
|
| ~~ ~~~~~~~~~~~~~~~
| +Q E E H +Q S S S S H +H
|--------------------------------|-------------------------------|------------|
|-(13)b15-----13pb15r11-13-------|-(13)--11p=10h11p=10-----------|------------|
|--------------------------------|----------------------12-------|-(12)-------|
|--------------------------------|-------------------------------|------------|
|--------------------------------|-------------------------------|------------|
|--------------------------------|-------------------------------|------------|
|
| ~~ ~~~~~~~~~~~~~~~
| +Q a E E H +Q a E a E H +H
|--------------------------------|-------------------------------|------------|
|-(15)----15-13-----11-13-------|-(13)--11-10-11-10-----------|------------|
|--------------------------------|----------------------12-------|-(12)-------|
|--------------------------------|-------------------------------|------------|
|--------------------------------|-------------------------------|------------|
|--------------------------------|-------------------------------|------------|


2nd Verse
4/4
Gtr I
E E E E E E E E E E E E E E E E E E E E E E E E E E E E Q E E
|-----------------|-----------------|-----------------|-----------------|
|---------3-------|---------1-------|---------3-------|-------6---------|
|-------3---3-----|-------2---2-----|-------3---3-----|-----7---7-------|
|-5---5-------5---|-3---3-------3---|-5---5-------5---|---7-------------|
|---5-----------5-|---3-----------3-|---5-----------5-|-5----------5-3--|
|-----------------|-----------------|-----------------|-----------------|


Gtr I
E E E E E E E E E E E E E E E E E E E E E E E E E E E E E E E E
|-----------------|-----------------|-----------------|-----------------|
|-------3-------5-|---------3-------|-------4-----6---|-3-----3-------6-|
|-----3-------5---|-------3---3-----|-----3---------5-|-----3-------7---|
|---3-------5-----|-5---5-------5---|---5-------7-----|---3-------7-----|
|-1-------3-------|---5-----------5-|-6-------8-------|---------5-------|
|-----------------|-----------------|-----------------|-----------------|


Gtr I
E E E E E E E E Q E E E E Q
|-----------------|---------------|
|---------------1-|------3--------|
|-------3-2---2---|----3-------3--|
|-5---5-----3-----|----------5----|
|---5-------------|-1------6------|
|-----------------|---------------|


2/4
Q Q E E E E E E E E E E E E E E E E
|---------------|------------------|-3---------|
|-4-----------4-|-------6-------3--|---3-------|
|-------5---5---|-7---7-------3----|-----3-----|
|---------5-----|---7-------5------|-------5---|
|----5----------|---------5--------|-----------|
|---------------|------------------|-----------|


Outro
4/4
E E E E E E E E Q E E E E Q
|-----------------|---------------|
|---------------1-|------3--------|
|-------3-2---2---|----3-------3--|
|-5---5-----3-----|----------5----|
|---5-------------|-1------6------|
|-----------------|---------------|


Q Q E E E E E E E E H +H Q Q
|---------------|-----------^3--|-(3)------^3----|
|-4----------4--|-------6---^3--|-(3)------^4----|
|------5---5----|-7---7-----^3--|-(3)------^3----|
|--------5------|---7-------^5--|-(5)------^5----|
|---5--3--------|-5---------^5--|-(5)------^6----|
|---------------|-----------^3--|-(3)------------|


Gtr I
+H H +Q H. +W
|--(3)----^1---|-(1)------^3--|-(3)----*|
|--(4)----^3---|-(3)------^3--|-(3)----*|
|--(3)----^2---|-(2)------^4--|-(4)----*|
|--(5)----^0---|-(0)------^5--|-(5)----*|
|--(6)---------|----------^5--|-(5)----*|
|--------------|----------^3--|-(3)----*|




--------------------------------------------------------------------------------


Duration Legend
---------------
W - whole; H - half; Q - quarter; E - 8th; S - 16th; T - 32nd; X - 64th; a - acciaccatura
+ - note tied to previous; . - note dotted; .. - note double dotted
Uncapitalized letters represent notes that are staccato (1/2 duration)
Irregular groupings are notated above the duration line
Duration letters will always appear directly above the note/fret number it represents the
duration for. Duration letters with no fret number below them represent rests. Multi-
bar rests are notated in the form Wxn, where n is the number of bars to rest for. Low
melody durations appear below the staff

Tablature Legend
----------------
h - hammer-on
p - pull-off
b - bend
pb - pre-bend
r - bend release (if no number after the r, then release immediately)
/ - slide into or out of (from/to "nowhere")
s - legato slide
S - shift slide
- natural harmonic
[n] - artificial harmonic
n(n) - tapped harmonic
~ - vibrato
tr - trill
T - tap
TP - trem. picking
PM - palm muting
n/ - tremolo bar dip; n = amount to dip
n - tremolo bar down
n/ - tremolo bar up
/n - tremolo bar inverted dip
= - hold bend; also acts as connecting device for hammers/pulls
<> - volume swell (louder/softer)
x - on rhythm slash represents muted slash
o - on rhythm slash represents single note slash

Misc Legend
-----------
| - bar
|| - double bar
||o - repeat start
o|| - repeat end
*| - double bar (ending)
: - bar (freetime)
$ - Segno
& - Coda
Tempo markers - = BPM(8/16=s8/s16), where s8 = swing 8ths, s16 = swing 16ths



--------------------------------------------------------------------------------

** Generated using Power Tab Editor by Brad Larsen: The Official Power Tab Web Site


 
»
Tvoje obľúbené položky
Tvoje obľúbené položky
»
Najnovšie videá
Najnovšie videá

šípková růženka - Jiří Schelinger

Petr Rychlý jako Jiří Schelinger - "

Jiří Schelinger - Šípková růženka

Jiří Schelinger - Šípková Růženka

Lekce kytary - Šípková Růženka

ŠÍPKOVÁ RŮŽENKA Jiří SCHELINGER k

»
Najnavštevovanejšie piesne
Najnavštevovanejšie piesne
Šípková Ruženka - akordy a text

Holubí dům - akordy a text

Holubí dum (lepšia verzia) - akordy a text

Holubí dům - 100% správně - akordy a text

Holubí dům - akordy a text

Jahody mražený - akordy a text

Jsem prý blázen jen - akordy a text

Jahody mražený - akordy a text

Léto s tebou - akordy a text

Šípková Růženka - oprava - taby

René, Já a Rudolf - akordy a text

Kartago - akordy a text

Holubí dům - taby

Jahody mražený - taby

Šípková Růženka - taby

Jsem prý blázen jen - taby

Lucrezia Borgia - akordy a text

Sim — sala — Sim - akordy a text

Ptají se lidé - akordy a text

Švihák lázeňský - akordy a text

viac

»
Nové albumy interpreta
Nové albumy interpreta
CD Zemetreseni Zemětřesení
CD Zemětřes
ení
2CD Schelinger J. Hrr na ne...nam se libi...
2CD Hrr na
ne...nam
se libi...
3xCD Schelinger Jiri Cas 51:71:81 (zlata kolekce)
3xCD Cas
51:71:81
(zlata
kolekce)
3xCD Svoboda Karel Platinum collection
3xCD Platinum
collection
DVD Schelinger Jiri Holubi dum
DVD Holubi dum
2xCD Schelinger Jiri Jsem blazen jen /best of
2xCD Jsem
blazen jen
/best of



home | interpreti | register piesní | cd & dvd shop | pripomienky/nápady | kontakt | ochrana údajov | inzercia

TOPlist