Doga

piesne (122)

  texty (112) / preklady (0)
  akordy (52) / taby (6)
  noty (0) / slideshow (0)

články (35)
fotogaléria
diskusia
videá
diskografia
v obchode
odkazy
koncerty
sťahuj



pridaj vlastný článok

Doga:
Doga nachystala dvoudiskovou výběrovku s jedenatřiceti písničkami - musicserver.cz


Atmo Music:
Festival Benátská! s Impulsem oznamuje termín i první účinkující - musicserver.cz


Doga:
První den na Footfestu vystoupili Škwor, Doga, Traktor nebo Dymytry - ireport.cz


Doga:
Doga s Alkeholem vyprodali plzeňskou Šeříkovku, atmosféra byla pekelná - ireport.cz


Doga:
Doga oslavila 30 let v plzeňské Šeříkovce, přivezla s sebou i Komunál a
Booters
- ireport.cz


Doga:
DOGA rozjela svou fabriku rock’n’rollu. Novou show - spark-rockmagazine.cz


Doga:
30 let Dogy bez řetězů, obojků a omezení - rockandpop.cz


Doga:
SPARK TV: Právě vychází album 'Hard werk' - novinka rockerů Doga - musicserver.cz


Doga:
DOGA jako dělníci rock'n'rollu. Nové album "Hard werk" vychází v prosinci! - spark-rockmagazine.cz


Doga:
SPARK TV: Doga jako dělníci rock'n'rollu. Nové album "Hard werk" vychází v
prosinci
- musicserver.cz


 

Doga

Fanúšikov: 14



A B C Č D E F G H CH I J K L Ľ M N O P Q R S Š T U V W X Y Z Ž



ako:
Doga - Nejsi nevinná
Doga - Nejsi nevinná

tlač

edituj
V originále: Doga
Pesničku videlo 14632 návštevníkov.

Kvalita tabov :
Hodnotilo ľudí: 1 ohodnoť aj ty
Prispievateľ:

marinezi
  *** Autor textu: Doga *** Autor hudby: Doga

Uvod
|--------------------------------|
|--------------------------------|
|--------------------------------|
|-0---0-----7-6-5-7-------0------|
|-0-2-0-2-x-5-4-3-5-7---2-0-2----|
|---0---0-x---------5-3-0---0----|

Sloka

|-------------------------|-----------------|------|
|-------------------0---0-|-----------------|------|
|---0---0---0---0-2-0-2-0-|---0---0-5-7---0-|------|
|-2-0-2-0-2-0-2-0-0---0---|-2-0-2-0-3-5-2-0-|-2----|
|-0---0---0---0-----------|-0---0-------0---|-0----|

Sloka 2

|-----------------|-----------------|--------------------------|
|-----------------|---0---0---------|--------------------------|
|---0---0---0---0-|-2-0-2-0---0---0-|-5-7---0---0-5-7---0------|
|-2-0-2-0-2-0-2-0-|-0---0---2-0-2-0-|-3-5-2-0-2-0-3-5-2-0-2----|
|-0---0---0---0---|---------0---0---|-----0---0-------0---0----|


Před refrénem

|--------------------------|
|--------------------------|
|--------------------------|Poslední akord
|-5-7-4-4-4-4-4-4-4-4-4----|Ztaženo pákou
|-3-5-2-2-2-2-2-2-2-2-2----|
|--------------------------|

Refren

|---------------------------------------|
|-----------------------8---10-8-7------|
|---7-----------5---7S9---9--------7piskloň----|
|-9-7-9-5-5-5-7-5-9---------------------|
|-7-x-7-3-2-3-5-x-7---------------------|
|---------------------------------------|


 
»
Tvoje obľúbené položky
Tvoje obľúbené položky
»
Najnovšie videá
Najnovšie videá

Doga-Nejsi nevinná

Doga - Uz nejsi nevinna [live @ Votvirak

Doga - Nejsi nevinná

Doga - Nejsi nevinná - Praha (12.3.2010

Doga- Nejsi nevinná uplugged

Spektrum - nejsi nevinná (Doga)

»
Najnavštevovanejšie piesne
Najnavštevovanejšie piesne
Nejsi nevinná - akordy a text

Laně Jdou - akordy a text

Hoď si to - taby

Beskydy - akordy a text

Se nebudu - akordy a text

Od soumraku do úsvitu - akordy a text

Camarro - akordy

Popojedem - akordy a text

Stíny - akordy a text

Já se na to - akordy a text

Dolce vita - akordy a text

Poletuju - akordy a text

Vím jak bolí - akordy a text

Poletuju....100% správně - akordy a text

Hvězdy zhasnou - akordy a text

Nejsem rozumnej - akordy a text

Blbá láska - akordy a text

Poletuju 2. verze - akordy a text

Laně jdou - akordy a text

Geny - akordy a text

viac

»
Nové albumy interpreta
Nové albumy interpreta
CD Doga Hard werk
CD Hard werk



home | interpreti | register piesní | cd & dvd shop | pripomienky/nápady | kontakt | ochrana údajov | inzercia