Deftones

piesne (134)

  texty (94) / preklady (9)
  akordy (0) / taby (30)
  noty (0) / slideshow (0)

články (29)
fotogaléria
diskusia
videá
diskografia
v obchode
odkazy
koncerty
sťahuj



pridaj vlastný článok

Deftones:
DEFTONES jsou ve studiu - Soudlě dle několik postů na sociálních sítí to vypadá, že jsou Američané ve st... - metalopolis.net


Deftones:
Deftones sa chystajú aj do Viedne - Deftones pripravujú veľké európske turné na rok 2017. Začínajú hneď v Rakúsku, ... - zst


Adele:
Pětadvacátý ročník hudebních cen Anděl zná své výherce - Pětadvacátý ročník hudebních cen Anděl zná své výherce Video: Slza v nové... - musicserver.cz


Deftones:
Deftones a spousta dalších na vás čekají v dalším dubnovém XPlaylistu - Deftones a spousta dalších na vás čekají v dalším dubnovém XPlaylistu Vydáno:... - musicserver.cz


Deftones:
Deftones predstavili skladbu Prayers/Triangles - Americká rocková kapela Deftones zverejnila skladbu Prayers/Triangles. Novinka mala pre...


Arch Enemy:
Týždeň v hard & heavy: Abbath v Londýne s corpse-paintom a hot-dogom - pred 4 hodinami | redakcia Olve Eikemo odišiel z Immortal, ktorého názov si chcel n... - zoznam.sk


Deftones:
Nový album je inšpirovaný Moriesseym - Frontman americkej rockovej kapely Deftones Chino Moreno v rozhovore pre magazín NME pre...


Deftones:
Deftones plánujú na jeseň vydať nový album - Frontman americkej rockovej kapely Deftones Chino Moreno v rozhovore pre BBC Radio 1 prez...


Deftones:
Deftones začali pracovať na novom albume - Americká rocková kapela Deftones začala pracovať na svojej ôsmej štúdiovke. V rozh...


Deftones:
Palms - Mission Sunset - Palms - Mission SunsetXindl X - Putiniáda více... ... - musicserver.cz


 

Deftones

Fanúšikov: 7



A B C Č D E F G H CH I J K L Ľ M N O P Q R S Š T U V W X Y Z Ž



ako:
Deftones - Passanger
Deftones - Passanger

tlač

edituj
Pesničku videlo 3486 návštevníkov.

Kvalita tabov : bez hodnotenia
Hodnotilo ľudí: 0 ohodnoť aj ty
Prispievateľ:

EPO

Main Riff (This is actually played by two guitars but this one-guitar version
sounds pretty close)
---------------------------------------------------------------------------------|
---------------------------------------------------------------------------------|
---------------------------------------------------------------------------------|
-3-3-3-3-3--6-6-6-6--3-3-3-3-3--4-4-4-4--3-3-3-3-3--3-3-3-3--3-3-3-3-3--3-3-3-3--|
-3-3-3-3-3--3-3-3-3--3-3-3-3-3--3-3-3-3--3-3-3-3-3--3-3-3-3--3-3-3-3-3--3-3-3-3--|
-3-3-3-3-3--3-3-3-3--3-3-3-3-3--3-3-3-3--3-3-3-3-3--3-3-3-3--3-3-3-3-3--3-3-3-3--|

Verse I
-8----6----9--------8----6----9-------|
--------------------------------------|
--------------------------------------|
--------------------------------------|
--------------------------------------|
--------------------------------------|
PM-----------------------------|

Pre-Chorus
-----------------------------------------------------------------|
-----------------------------------------------------------------|
-----------------------------------------------------------------|
-3-3-3-3-3-3-3-3-3-3-3-3-3-3-3-3-3-3-3-3-3-3-3-3-3-3-3-3-4-4-4-4-|
-3-3-3-3-3-3-3-3-3-3-3-3-3-3-3-3-3-3-3-3-3-3-3-3-3-3-3-3-4-4-4-4-|
-3-3-3-3-3-3-3-3-3-3-3-3-3-3-3-3-3-3-3-3-3-3-3-3-3-3-3-3-4-4-4-4-|

Verse II
-8----8----9--------8----8----9--------|
---------------------------------------|
---------------------------------------|
---------------------------------------|
---------------------------------------|
---------------------------------------|
PM-----------------------------|

Verse II Part 2 (with wierd effect)
-8---------8--------|
--------------------|
--------------------|
--------------------|
--------------------|
--------------------|

Breakdown Part I
------------------------------------------|
------------------------------------------|
------------------------------------------|
-3-3-3-3---5-5-5-5---4-4-4-4---3-3-3-3----|
-3-3-3-3---3-3-3-3---3-3-3-3---3-3-3-3-0--|
-3-3-3-3---3-3-3-3---3-3-3-3---3-3-3-3-1--|

Breakdown Part II
---------------------------------------------|
---------------------------------------------|
---------6----------5----------3-------------|
-3-3-3-3-6--3-3-3-3-5--3-3-3-3-3--3-3-3-3----|
-3-3-3-3-6--3-3-3-3-5--3-3-3-3-3--3-3-3-3-0--|
-3-3-3-3----3-3-3-3----3-3-3-3----3-3-3-3-1--|

Breakdown Part III
---------------------------------------------|
---------------------------------------------|
---------6----------5----------7-------------|
-3-3-3-3-6--3-3-3-3-5--3-3-3-3-7--3-3-3-3----|
-3-3-3-3-6--3-3-3-3-5--3-3-3-3-7--3-3-3-3-0--|
-3-3-3-3----3-3-3-3----3-3-3-3----3-3-3-3-1--|

Verse III
-6----8----9--------8----8----9--------|
---------------------------------------|
---------------------------------------|
---------------------------------------|
---------------------------------------|
---------------------------------------|
PM-----------------------------|

Verse III Part 2 (with wierd effect)
-8-t9------8-t9-----|
--------------------|
--------------------|
--------------------|
--------------------|
--------------------|

Verse IV
-6----8----9--------6----8----4--------|
---------------------------------------|
---------------------------------------|
---------------------------------------|
---------------------------------------|
---------------------------------------|
PM------------------------------|

Verse IV Part 2 (with wierd effect)
-8-t9------8-t9-----|
--------------------|
--------------------|
--------------------|
--------------------|
--------------------|

Pre-Chorus 2
-----------------------------------------------------------------|
-----------------------------------------------------------------|
-----------------------------------------------------------------|
-3-3-3-3-3-3-3-3-3-3-3-3-3-3-3-3-3-3-3-3-3-3-3-3-3-3-3-3-3-3-3-3-|
-3-3-3-3-3-3-3-3-3-3-3-3-3-3-3-3-3-3-3-3-3-3-3-3-3-3-3-3-3-3-3-3-|
-3-3-3-3-3-3-3-3-3-3-3-3-3-3-3-3-3-3-3-3-3-3-3-3-3-3-3-3-3-3-3-3-|

End
-------------------------------------------------------|
-------------------------------------------------------|
-------------------------------------------------------|
--4--------Right here scrape up and down your strings--|
--4----------------------------------------------------|
--4----------------------------------------------------|

Outro
-1----9--10--9----4----9--10--9-----1----9--10--9----4----9--10----|
-------------------------------------------------------------------|
-------------------------------------------------------------------|
-------------------------------------------------------------------|
-------------------------------------------------------------------|
-------------------------------------------------------------------|
PM --------------------------------------------------------------|

 
»
Tvoje obľúbené položky
Tvoje obľúbené položky
»
Najnovšie videá
Najnovšie videá

Deftones - Passenger (ft. Maynard Keenan

Deftones ft. Maynard - Passenger

Deftones-Passen ger(ft. Maynard of Tool)

DEFTONES - PASSENGER - DRUM COVER BY MEY

Deftones - Passenger - Lyrics

Deftones - Passenger [Live feat. Hayley

»
Najnavštevovanejšie piesne
Najnavštevovanejšie piesne
»
Nové albumy interpreta
Nové albumy interpreta
PTCH Deftones Abstract lines
PTCH Abstract
lines
CD Deftones Live at dynamo open air...
CD Live at
dynamo
open
air...
LSB Deftones Skull [velkost s]
LSB Skull
[velkost
s]
LSB Deftones Skull [velkost xl]
LSB Skull
[velkost
xl]
LSB Deftones Skull [velkost xxl]
LSB Skull
[velkost
xxl]
LSB Deftones Skull [velkost m]
LSB Skull
[velkost
m]



home | interpreti | register piesní | cd & dvd shop | pripomienky/nápady | kontakt | ochrana údajov | inzercia

TOPlist