Druhá Tráva

piesne (70)

  texty (61) / preklady (0)
  akordy (64) / taby (2)
  noty (0) / slideshow (0)

články (44)
fotogaléria
diskusia
videá
diskografia
v obchode
odkazy
koncerty
sťahuj



pridaj vlastný článok

Druhá Tráva:
Report: Robert Křesťan a Druhá tráva v Metro Music Baru (Vladimír Béďa
Halm) PDF Tisk Email
- Reportáže aneb Se sádrou do baru Středa 7. března 2018 byla nejen předvečere... - folktime.cz


Bratři Ebenové:
Dvojkoncert skupin Robert Křesťan & Druhá tráva a Bratři Ebenové (Šimon
Kotek) PDF Tisk Email
- Pozvánky Přijďte si vychutnat vzácné setkání našich předních umělců na v... - folktime.cz


Druhá Tráva:
Dvojkoncert skupin Robert Křesťan a Druhá tráva a - Vzácné setkání Přijďte si vychutnat vzácné setkání našich předních umělc... - 100promotion


Druhá Tráva:
Robert Křesťan a Druhá tráva na Staré radnici - Reportáže aneb i brněnský drak si pochutnal na hudební lahůdce Pomalu se stá... - folktime.cz


Bílé Inferno:
Folkové prázdniny oznamují „snový“ výběr domácích účinkujících - Festivaly Každé setkání s Ivou Bittovou, Anetou Langerovou, Katkou García, pís... - folktime.cz


Druhá Tráva:
DRUHÁ TRÁVA OSLAVUJE 25 ROKOV! - Popredná česká kapela Druhá tráva, ktorá sa počas rokov odchýlila od pôvodnéh... - M.Helcl


Bratři Ebenové:
Žánrové ceny Anděl 2015 rozdány, v kategorii Folk & country zvítězila
Epydemye!
- Novinky Včera jste si jistě nenechali ujít na ČT Art přímý přenos z udělov... - folktime.cz


Druhá Tráva:
Koncert na přání – Marien a Druhá tráva v Kostěnicích (Jana
Štěpánková)
- Reportáže Koncert na přání – Marien a Druhá tráva v KostěnicíchZa... - folktime.cz


Dan Bárta:
Domácí mainstream v roce 2013: Co vše se - Domácí mainstream v roce 2013: Co vše se (ne)povedlo? Recenze: Beyoncé je na novém... - musicserver.cz


Druhá Tráva:
Druhá tráva oživuje písně Traperů a Poutníků - Druhá tráva - album Pojďme se napít Druhá tráva – album Pojďme se napít... - countryworld.cz


 

Druhá Tráva

Fanúšikov: 12



A B C Č D E F G H CH I J K L Ľ M N O P Q R S Š T U V W X Y Z Ž



ako:
Druhá Tráva - Praha bolestivosti
Druhá Tráva - Praha bolestivosti

tlač

edituj
Poznámka: Banjo tab in Capo 3 position and the same in open

Pesničku videlo 707 návštevníkov.

Kvalita tabov : bez hodnotenia
Hodnotilo ľudí: 0 ohodnoť aj ty
Prispievateľ:

Černej Jack
Artist: Druhá Tráva
Song: Praha bolestivosti
Album: Best & Last
Tab by: Zdeněk Hataš
Capo: 3. fret, 5th string without capo

Intro: repeat 2x
F C F C G Dm Am

D |--3-----------------|--------------------|-3-----------------|-----------------0------|-7-----------------|-----------------|
B |--------------------|-----0---1----------|-------------------|-----0---1--------------|-----8---------3---|-----0---1-------|
G |----------2---------|-2------------------|---------2---------|-2----------------------|-------------------|-2---------------|
D |--------------------|--------------------|-------------------|------------------------|-------------------|-----------------|
G |------0-------------|-------------0------|-----0-------------|-------------0----------|----------0--------|-------------0---|

Bb Am

D |--5-----------------|-3------------------|
B |------5-------------|-----3--------------|
G |---------5---7------|---------3---5------|
D |--------------------|--------------------|
G |--------------------|--------------------|


interlude:

F C F C G Dm Am

D |--3-----------------|--------------------|-3-----------------|-----------------0------|-7-----------------|-----------------|
B |--------------------|-----0---1----------|-------------------|-----0---1--------------|-----8---------3---|-----0---1-------|
G |----------2---------|-2------------------|---------2---------|-2----------------------|-------------------|-2---------------|
D |--------------------|--------------------|-------------------|------------------------|-------------------|-----------------|
G |------0-------------|-------------0------|-----0-------------|-------------0----------|----------0--------|-------------0---|

Bb Am

D |--5-----------------|-3------------------|
B |------5-------------|-----3--------------|
G |---------5---7------|---------3---5------|
D |--------------------|--------------------|
G |--------------------|--------------------|

F C F C G Dm C

D |--3-----------------|--------------------|-3-----------------|-----------------0------|
B |--------------------|-----0---1----------|-------------------|-----0---1--------------|
G |----------2---------|-2------------------|---------2---------|-2----------------------|
D |--------------------|--------------------|-------------------|------------------------|
G |------0-------------|-------------0------|-----0-------------|-------------0----------|



jsme za prahem .....

Bb

D |--5-----------------|
B |------5-------------|
G |---------5---7------| x5
D |--------------------|
G |--------------------|


Same in open position without capo

Intro: repeat 2x

As Es As Es Bb Fm Cm

D |--6-----------------|--------------------|-6-----------------|------------------------|-10----------------|-----------------|
B |--------------------|---------4----------|-------------------|---------4-------6------|-----11--------6---|---------4-------|
G |----------5---------|-5---7--------------|---------5---------|-5---7------------------|-------------------|-5---7-----------|
D |--------------------|--------------------|-------------------|------------------------|-------------------|-----------------|
G |------0-------------|-------------0------|-----0-------------|-------------0----------|----------0--------|-------------0---|

C# Cm

D |--8-----------------|-6------------------|
B |------8-------------|-----6--------------|
G |---------8---10-----|---------6---8------|
D |--------------------|--------------------|
G |--------------------|--------------------|


interlude:

As Es As Es Bb Fm Cm

D |--6-----------------|--------------------|-6-----------------|------------------------|-10----------------|-----------------|
B |--------------------|---------4----------|-------------------|---------4-------6------|-----11--------6---|---------4-------|
G |----------5---------|-5---7--------------|---------5---------|-5---7------------------|-------------------|-5---7-----------|
D |--------------------|--------------------|-------------------|------------------------|-------------------|-----------------|
G |------0-------------|-------------0------|-----0-------------|-------------0----------|----------0--------|-------------0---|

C# Cm

D |--8-----------------|-6------------------|
B |------8-------------|-----6--------------|
G |---------8---10-----|---------6---8------|
D |--------------------|--------------------|
G |--------------------|--------------------|

As Es As Es Bb Fm Cm

D |--6-----------------|--------------------|-6-----------------|------------------------|
B |--------------------|---------4----------|-------------------|---------4-------6------|
G |----------5---------|-5---7--------------|---------5---------|-5---7------------------|
D |--------------------|--------------------|-------------------|------------------------|
G |------0-------------|-------------0------|-----0-------------|-------------0----------|



jsme za prahem .....

C#

D |--8-----------------|
B |------8-------------|
G |---------8---10-----| x5
D |--------------------|
G |--------------------|


 
»
Tvoje obľúbené položky
Tvoje obľúbené položky
»
Nové albumy interpreta
Nové albumy interpreta
CD Druha Trava New freedom bell
CD New
freedom
bell
CD Druha Trava Czechmate
CD Czechmate
CD Druha Trava & Krestan Robert Pojdme se napit
CD Pojdme se
napit
CD Krestan Robert & Druha Trava Robert krestan & druha trava
CD Robert
krestan &
druha
trava
CD Krestan Robert & Druha Trava Dylanovky
CD Dylanovky
CD Druha Trava (700522) S pavlinou jisovou
CD S pavlinou
jisovou
»
Najnovšie videá
Najnovšie videá

Druhá tráva - Praha bolestivosti

Robert Křesťan a Druhá tráva, Praha

Molloví Hnidopíšci - Praha Bolestivos

Druhá tráva before Barack Obama in Pra

Sbohem Angelino

Druhá Tráva - Infiela

»
Najnavštevovanejšie piesne
Najnavštevovanejšie piesne
Ještě není tma - akordy a text

Dívka ze severu - akordy a text

Ještě jedno kafe - akordy a text

Až si jednou - akordy a text

Marcipán z Toleda - akordy a text

Sbohem Angelino - akordy a text

Tanečnice - Akordy a text

Señore - akordy

Zvoní zvony - akordy a text

Každé zrnko písku - akordy a text

Řada snů - akordy a text

Ráno - akordy

Praha bolestivosti - taby

Wayfaring stranger - akordy a text

Greensleeves - akordy a text

Amazing grace - akordy a text

Čím dál tíž se dejchá - akordy

Čeká nás poslední ráno - akordy a text

Infiela - akordy a text

Wild horses - taby

viac




home | interpreti | register piesní | cd & dvd shop | pripomienky/nápady | kontakt | ochrana údajov | inzercia

TOPlist