Peter Nagy

piesne (184)

  texty (163) / preklady (2)
  akordy (118) / taby (8)
  noty (3) / slideshow (0)

články (307)
fotogaléria
diskusia
videá
diskografia
v obchode
odkazy
koncerty
sťahuj



pridaj vlastný článok

Peter Nagy:
Peter Nagy slávi 60. narodeniny - Prvú gitaru dostal Nagy od otca po skončení deviatej triedy. Na druhú si už zarobil ... - dobrenoviny.sk


Peter Nagy:
Peter Nagy oslavuje 60-tku: Fanúšikovia ma berú ako človeka, nie idol - pred 3 hodinami | redakcia Peter Nagy sa pohybuje na domácej hudobnej scéne už 35 r... - zoznam.sk


Peter Nagy:
Peter Nagy k šedesátým narozeninám nadělí fanouškům česko-slovenské
turné
- 4 dubna 2019 Šárka Blahoňovská Žádné komentáře Novinky Peter Nagy k šedes... - rockandpop.cz


Peter Nagy:
Peter Nagy oslávi 60-tku veľkolepým turné - Peter Nagy oslavuje 60-tku! Hitmaker oslávi jubileum a 35 rokov na hudobnej scéne ve... - livemusic.sk


Peter Nagy:
Peter Nagy má nový album PIANKO, zahrá ho na vianočnom turné - Česko-slovenská legenda Peter Nagy vydáva nový album! CD s názvom “PIANKO” ... - music-zone.eu


Peter Nagy:
Peter Nagy sa do hitparád nehrnie: Tvrdá kritika súčasnej situácie - 91 zdieľaní Zdieľaj Diskusia / 28 Zapnúť upozornenia Máte tip? Dajte nám vedi... - cas.sk


Peter Nagy:
Na inšpiráciu mu toho veľa netreba: Petrovi Nagyovi úplne stačí priateľka
a...
- Ako spieva vo svojich piesňach Len pomaly, či S nohami na stole, tak si aj nažíva. ... - cas.sk


Peter Nagy:
Peter Nagy odštartoval PIANKO tour vypredaným koncertom v Bratislave a
niekoľkonásobným standingovations!
- Megahity v jedinečných aražmánoch, vypredaná sála a standing ovations! Tak to vyz... - livemusic.sk


Tomáš Buranovský:
Košický zlatý poklad už pozná svojich víťazov - pred 3 hodinami | redakcia Najstaršia slovenská autorská pesničková súťaž už ... - zoznam.sk


Peter Nagy:
Peter Nagy: Chcel som zostať sám sebou a neprísť o dôstojnosť - Na tejto hojdačke 6fotiek v galérii Na tejto hojdačke sa zvykne upokojovať. Zdroj: A... - aktuality.sk


 

Peter Nagy

Fanúšikov: 29



A B C Č D E F G H CH I J K L Ľ M N O P Q R S Š T U V W X Y Z Ž



ako:
Peter Nagy - Psi sa brania utokom (intro)
Peter Nagy - Psi sa brania utokom (intro)

tlač

edituj
Rok vzniku: 1999
Pesničku videlo 97 návštevníkov.

Kvalita tabov : bez hodnotenia
Hodnotilo ľudí: 0 ohodnoť aj ty
Prispievateľ:

phoenix100
  *** Autor textu: Peter Nagy *** Autor hudby: Július Kinček
             C        G        Am
-----------------------------------------------
----------------------14b15-17-13~~~-----------
/12-10h12p10-9-10-12---------------------------
-----------------------------------------------
-----------------------------------------------
-----------------------------------------------

F Dm G
-----------------------------------------------
----------------------12b13-13h15p13-12~~~~----
/14-12h14p12-10-12-14--------------------------
-----------------------------------------------
-----------------------------------------------
-----------------------------------------------
C G
-----------------------------------------------
-----------------------------------------------
/12-10h12p10-9-10-12-------------------9-10-12-
--------------------------------9-10-12--------
--------------------------10-12----------------
-----------------------12----------------------

Am C F G
-------------------------13~~-15-12-10~~~------
--10-12-13----10-12-13-------------------------
-----------------------------------------------
-----------------------------------------------
-----------------------------------------------
-----------------------------------------------

 
»
Tvoje obľúbené položky
Tvoje obľúbené položky
»
Najnovšie videá
Najnovšie videá

Peter Nagy, Jožo Ráž - Psi sa bránia

Peter Nagy a Jožo Ráž - Psy sa bráni

Peter Nagy & Jožo Ráž - Psi sa br

Peter Nagy a Jožo Ráž - Psi sa bráni

Jožo Ráž a Peter Nagy - Psi sa brá

Peter Nagy - Psi sa brania utokom (unpl

»
Najnavštevovanejšie piesne
Najnavštevovanejšie piesne
Aj tak sme stále frajeri - akordy a text

Vianoce, Vianoce - akordy a text

Kristínka - akordy a text

Poďme sa zachrániť - akordy a text

Kristínka :) - akordy a text

Poď hrať Ping-Pong - akordy a text

Láska je tu s nami - akordy a text

Bobi - akordy a text

Kristínka iba spi - akordy a text

Sám s nohami na stole - akordy a text

Kristínka iba spí - opravená - akordy a text

Prečo krava nenosí žiadnu kravatu - text

Poďme sa zachrániť - akordy

Chráň svoje bláznovstvá - akordy a text

Dve malé blchy - akordy a text

Len pomaly (Z. Smatanová) - akordy a text

Aj tak sme stále frajeri - text

Psi sa brania utokom (intro) - taby

Psi sa bránia útokom - akordy a text

Sprayer Frayer - akordy a text

viac

»
Nové albumy interpreta
Nové albumy interpreta
CD Nagy Peter Pianko
CD Pianko
2xCD Nagy Peter Sachy robia cloveka / finta
2xCD Sachy
robia
cloveka /
finta
DVD Nagy Peter 30 rokov na scene (live koncert)
DVD 30 rokov
na scene
(live
koncert)
2xCD Nagy Peter Mne sa neschovas / „ale“
2xCD Mne sa
neschovas
/
„ale“
CD Nagy Peter Rockmi overene
CD Rockmi
overene
2xCD Nagy Peter Pesnicky pre deti
2xCD Pesnicky
pre deti



home | interpreti | register piesní | cd & dvd shop | pripomienky/nápady | kontakt | ochrana údajov | inzercia

TOPlist