Xavier Baumaxa

piesne (125)

  texty (93) / preklady (0)
  akordy (70) / taby (13)
  noty (1) / slideshow (0)

články (39)
fotogaléria
diskusia
videá
diskografia
v obchode
odkazy
koncerty
sťahuj



pridaj vlastný článok

Ac/dc:
Květen bude popovější. Nabídne také hodně českých koncertů - V měsíci lásky zavítá do Česka méně světových umělců. O to více ale bude tuz... - denik.cz


Xavier Baumaxa:
FOTO: MUCHA, XAVIER BAUMAXA, MUSILKA, BRNO, 7. 9. 2017 - sobota, 09 září 2017 17:02 Napsal(a) Kateřina Kovalčíková velikost písma zmenš... - musicweb.cz


Xavier Baumaxa:
Mucha a Xavier Baumaxa spojí síly na Střeláku - Mucha a Xavier Baumaxa spojí síly na Střeláku Autor: Iva Boková 04.09.2017 Tisk ... - abradio.cz


Xavier Baumaxa:
Zraněný Xavier Baumaxa pokřtí nové album s náhradním kytaristou - /**/ více tiscali.cz... - IREPORT


J.a.r.:
Pětadvacetileté J.A.R. přijdou do Lucerny podpořit Vladimir 518, Vojta Dyk i
Xavier Baumaxa
- /**/ více tiscali.c... - IREPORT


Ahmed Má Hlad:
Festivalový víkend: bylo to krásné a nebylo toho dost - Prago Union | na serveru Lidovky.cz | aktuální zprávy 6. září 2013 7:00 | Lidov... - lidovky.cz


Balaton Sound:
Český YouTube Fest 2013 zná jména patnácti finalistů - ... - musicserver.cz


Bad Seeds:
Na Pohode vystúpi aj Tony Allen a kolumbijská Ondatrópica - Okrem nich riaditeľ festivalu Michal Kaščák v pondelok večer zverejnil účasť fran...


Xavier Baumaxa:
Xavier Baumaxa v októbri vystúpi v Trenčíne, Nitre a Bratislave - Český pesničkár a gitarista Xavier Baumaxa sa v októbri naživo predstaví v troch ...


Xavier Baumaxa:
KONCERTY V KLUBE ZA ZRKADLOM - 04.10. 19:30 THE ROLLING STONES, THE DOORS 6 € / 8 € ...


 

Xavier Baumaxa

Fanúšikov: 21



A B C Č D E F G H CH I J K L Ľ M N O P Q R S Š T U V W X Y Z Ž



ako:
Xavier Baumaxa - Retrofutro Discotheque, V. 01
Xavier Baumaxa - Retrofutro Discotheque, V. 01

tlač

edituj
V originále: U2 - With Or Without You
Pesničku videlo 5113 návštevníkov.

Kvalita tabov : bez hodnotenia
Hodnotilo ľudí: 0 ohodnoť aj ty
Prispievateľ:

Kompi
  *** Autor textu: Xavier Baumaxa *** Autor hudby: Xavier Baumaxa
                            Retrofutro discotheque                              


Hudba a text: Xavier Baumaxa
tab: kompi@email.cz
Stopa 1

Intro - sloka:

E

E||---4-----------4-----------|--4--------5--------------|
B||---------5--------5--------|--------5-----------5-----|
G||*--------------------------|--------------------------|
D||*--------------------------|--------------------------|
A||---------------------------|--------------------------|
E||---0--0--0--0--0--0--0--0--|--0--0--0--0--0--0--0--0--|


C#mi A

--7-------------7-----------|--5--------5---------------||
----------5--------5--------|--------5-----------5------||
----------------------------|--------------------------*||
----------------------------|--------------------------*||
--4----4--4--4--4--4--4--4--|---------------------------||
----------------------------|--5--5--5--5--5--5--5--5---||


C#mi

-----------------------------|--------------------------|
---4-------5-----4--5--------|--4-----5--7-----5--------|
*----------------------------|--------------------------|
*----------------------------|--------------------------|
---4----4--4--4--4--4--4--4--|--0--0--0--0--0--0--0--0--|
-----------------------------|--------------------------|


--------------------------|---------------------------||
--4-----5-----4--5--------|--4-----5------------------||
--------------------------|-----------6-----4--------*||
--------------------------|--------------------------*||
--4--4--4--4--4--4--4--4--|--0--0--0--0--0--0--0--0---||
--------------------------|---------------------------||



Celé akordy - ke konci:

E5 Esus2 E6

--0----0--0--0----0--0--|--7-----7--7--7----7--7--|--0----0--0--0----0--0--|
--0----0--0--0----0--0--|--7-----7--0--7----7--7--|--0----0--0--0----0--0--|
--9----9--9--9----9--9--|--9-----9--9--9----9--9--|--6----6--6--6----6--6--|
--9----9--9--9----9--9--|--9-----9--9--9----9--9--|--6----6--6--6----6--6--|
--7----7--7--7----7--7--|--7-----7--7--7----7--7--|--4----4--4--4----4--4--|
--0----0--0--0----0--0--|--0-----0--0--0----0--0--|--0----0--0--0----0--0--|



Beatbox - doprovod

C#sus2/E C#m C#m7

--4--------4--4--4----4--4--|--4----------4--------4-----|
--4--------4--4--5----5--5--|-------0--------0--------0--|
--6--------6--6--6----6--6--|----------6--------6--------|
--6--------6--6--6----6--6--|----------------------------|
--4--------4--4--4----4--4--|----------------------------|
--0--------0--0--0----0--0--|--0-------------------0-----|


A

-----4--------5-----5-----|-----||
--------0-----5-----5-----|-----||
--6--------6--4-----4-----|-----||
--------------------------|-----||
--------------------------|-----||
--------------5--5--5-----|-----||







 
»
Tvoje obľúbené položky
Tvoje obľúbené položky
»
Nové albumy interpreta
Nové albumy interpreta
2xCD Baumaxa Xavier Dawntempo
2xCD Dawntempo
CD Baumaxa Xavier Buranissimo forte
CD Buranissim
o forte
CD Baumaxa Xavier & Hnedde Smycce Coveranto
CD Coveranto
CD Baumaxa Xavier Retrofutro
CD Retrofutro
CD Baumaxa Xavier Fenkam
CD Fenkam
CD Planety (r.muller D.barta O. Planety
CD Planety
»
Najnovšie videá
Najnovšie videá

Xavier Baumaxa - Fenkám (celé album)

Jak to hraje Xavier Baumaxa, díl druhý

Baumaxa - Banát 2015

Xavier Baumaxa - Rock For People 2008

Xavier Baumaxa - Good times & bad times

Xavier Baumaxa, piksla 23.03.08

»
Najnavštevovanejšie piesne
Najnavštevovanejšie piesne
Pažitka - Správně - akordy

Pažitka - akordy a text

Dátamtůja - akordy a text

Lidé Z Malých Vesniček - akordy a text

Špulka A Já - akordy a text

Mámámamá - akordy

Otvírákem - akordy a text

Pan Farář - akordy a text

Nonšalantní Bonvián - Tak Jak To Opravdu Hraje Xavier - akordy a text

Nazijazz - akordy a text

Pažitka - akordy a text

Samba V Kapkách Chlastu - akordy a text

Muž, Který Prohrál - akordy a text

Romale Rap - akordy a text

Když Muž Sám Snídá - akordy a text

Kultura Je Plná Kultů - akordy

Parapety (pocta B. Hrabalovi) - akordy a text

Positiff Peopula - akordy a text

Ing. Pavel Pavel - akordy a text

Vegetarián - akordy

viac




home | interpreti | register piesní | cd & dvd shop | pripomienky/nápady | kontakt | ochrana údajov | inzercia

TOPlist