Malignant Tumour

piesne (1)

  texty (0) / preklady (0)
  akordy (0) / taby (1)
  noty (0) / slideshow (0)

články (5)
fotogaléria
diskusia
videá
diskografia
v obchode
odkazy
koncerty
sťahuj



pridaj vlastný článok

Iva Bittová:
11 českých kapel, které se prosadily v zahraničí - frontman.cz


ACID FORCE:
Metaloví Bastardi to riadne roztočili v Riderse - rocker.sk


Malignant Tumour:
Tu Šimek z Ostravy! Basák z MALIGNANT TUMÖUR jako heavy průvodce areálem
Ostravy v plamenech.
- spark-rockmagazine.cz


Malignant Tumour:
C, Malignant Tumour a mnozí další na stylově neomezeném fesťáku ve Futře - musiczone.cz


Ludkovická Plečka 2010:
Ludkovická Plečka 2010


Malignant Tumour:
Ostravská grindcorová mlátička MALIGNANT TUMOUR s novým albumom - musicscaper.sk


Crow:
Moto Rock Fest 2010 - hudba-music.sk


Malignant Tumour:
Cenu Břitva si odnesli Malignant Tumour i Ozzák - musicserver.cz


Amon Amarth:
Slayer, Trivium, Mastodon, Amon Amarth, Malignant Tumour, Tesla Arena, Praha,
17.11.2008
- musicserver.cz


 

Malignant Tumour

Fanúšikov: 1



A B C Č D E F G H CH I J K L Ľ M N O P Q R S Š T U V W X Y Z Ž



ako:
Malignant Tumour - Saddam Hussein is Rock 'n Roll
Malignant Tumour - Saddam Hussein is Rock 'n Roll

tlač

edituj
V originále: Garotos Podres
Pesničku videlo 2404 návštevníkov.

Kvalita tabov :
Hodnotilo ľudí: 1 ohodnoť aj ty
Prispievateľ:

Dave77
(0:05-0:08)
e|-------------------
h|-------------------
g|-------------------
D|-------------------
A|-------------------
E|-8-7-6-5-4-3-2-1---

(0:08-0:20)
e|-------------------
h|-------------------
g|-------------------
D|--777777-10-10-----
A|--777777-10-10-----
E|--555555--8--8-----

e|-------------------
h|-------------------
g|-------------------
D|--777777--4-5------
A|--777777--4-5------
E|--555555--2-3------ 3x

(0:20-0:22)

e|-------------------
h|-------------------
g|-------------------
D|--777777-10-10--7x-
A|--777777-10-10--7x-
E|--555555--8--8--5x-
malá pauza (v studiové nahrávce zazní smích)

(0:23)
e|----------
h|----------
g|----------
D|----4-5---
A|----4-5---
E|----2-3---
pokračuje se stejně

(0:24-0:47)
e|-------------------
h|-------------------
g|-------------------
D|--777777-10-10-----
A|--777777-10-10-----
E|--555555--8--8-----

e|-------------------
h|-------------------
g|-------------------
D|--777777--4-5------
A|--777777--4-5------
E|--555555--2-3------ 6x

(0:48-0:55)
e|-------------------
h|-------------------
g|--77777------------
D|--77777-77777------
A|--55555-77777------
E|--------55555------

e|-------------------
h|-------------------
g|--77777-99999------
D|--77777-99999------
A|--55555-77777------
E|-------------------

(0:56-1:11)
e|-------------------
h|-------------------
g|-------------------
D|--777777-10-10-----
A|--777777-10-10-----
E|--555555--8--8-----

e|-------------------
h|-------------------
g|-------------------
D|--777777--4-5------
A|--777777--4-5------
E|--555555--2-3------ 4x

(1:12-1:19)
e|-------------------
h|-------------------
g|--77777------------
D|--77777-77777------
A|--55555-77777------
E|--------55555------

e|-------------------
h|-------------------
g|--77777-99999------
D|--77777-99999------
A|--55555-77777------
E|-------------------

(1:36-1:43)
e|-------------------
h|-------------------
g|--77777------------
D|--77777-77777------
A|--55555-77777------
E|--------55555------

e|-------------------
h|-------------------
g|--77777-99999------
D|--77777-99999------
A|--55555-77777------
E|-------------------

(1:44-1:59)
e|-------------------
h|-------------------
g|-------------------
D|--777777-10-10-----
A|--777777-10-10-----
E|--555555--8--8-----

e|-------------------
h|-------------------
g|-------------------
D|--777777--4-5------
A|--777777--4-5------
E|--555555--2-3------ 4x

(2:00-2:08)
e|-------------------
h|-------------------
g|--77777------------
D|--77777-77777------
A|--55555-77777------
E|--------55555------

e|-------------------
h|-------------------
g|--77777-99999------
D|--77777-99999------
A|--55555-77777------
E|-------------------

(2:15-2:16)
e|------------
h|------------
g|------------
D|--4-5-7-----
A|--4-5-7-----
E|--2-3-5-----

Z odposlechu a částečně i z okoukání bo sem stál u pódia a furt se čuměl na kejtru.
Zní to dobře.
Doufám že oceníte ;)

 
»
Tvoje obľúbené položky
Tvoje obľúbené položky
»
Najnovšie videá
Najnovšie videá

Malignant Tumour - Saddam Hussein Is Roc

Malignant Tumour-Saddam Hussein is rock

Malignant Tumour - Walk as we talk (offi

Malignant Tumour - The Metallist (full a

Malignant Tumour - Saddam Hussein is Roc

Malignant Tumour - Saddam Hussein is ro

»
Najnavštevovanejšie piesne
Najnavštevovanejšie piesne
»
Nové albumy interpreta
Nové albumy interpreta
VINYL Malignant Tumour The metallist [vinyl]
VINYL The
metallist
[vinyl]
CD Malignant Tumour The metallist
CD The
metallist
CDD Malignant Tumour Overdose & overdrive
CDD Overdose &
overdrive
CD Malignant Tumour Overdose & overdrive
CD Overdose &
overdrive



home | interpreti | register piesní | cd & dvd shop | pripomienky/nápady | kontakt | ochrana údajov | inzercia